Doobie Brothers Tabs

Rockin Down The Highway

4 versions

TAB

            Rockin Down The Highway Tab by Doobie Brothers


----------------------------------------------------------------------------
	    Rockin' Down the Highway - The Doobie Brothers
----------------------------------------------------------------------------
Tabbed by:Matt Schultz
Email:Hippieboy444@aim.com

Tuning: Standard Tuning

I found that theres 2 ways to intro this song. Here's the first way:

Guitar I (clean)
|------------------------|
|-10-10----8-8-7-7-7-10--|
|--9--9----7-7-7-7-7--9--|
|-11-11----9-9-7-7-7-11--|
|------------------------|
|------------------------|

Heres the way me and my band play this song:

Guitar I (w/ light override)
|-----------------------|
|-10-10----8-8-7-7-7-5--|
|--9--9----7-7-7-7-7-6--|
|-11-11----9-9-7-7-7-7--|
|-----------------------|
|-----------------------|

Thats it. Thanks for viewing this. PM if you want!    

Added On December 4th, 2013

SHARE

Comments

blog comments powered by Disqus