Dornenreich Tabs

Trauerbrandung

1 versions

TAB

            some riffs
listen to the song to get the rhytm and p.m.'s
~ - vibrato
riff1
e||------------------------------------------------------------------|
b||------------------------------------------------------------------|
g||--------------------------------------------------------------4~--|
d||-2--2-2-2-2--2-2-2-2--2-2-2-2--2--2--2--5--5-5-5-5--5--5--7-------|
a||-2--2-2-2-2--2-2-2-2--2-2-2-2--2--2--2--5--5-5-5-5--5--5--7-------|
e||-0--0-0-0-0--0-0-0-0--0-0-0-0--0--0--0--3--3-3-3-3--3--3--5-------|
       PM----|  PM---|   PM---|   PM----------------------|     P.H.

riff2 //after it sometimes play p.h. on g string 4th fret
e||-------------------|
b||-------------------|
g||-------------------|
d||-2-----5-----7b----|
a||-2-----5-----7b----|
e||-0-----3-----5b----|

riff3 //after it sometimes play p.h. on g string 4th fret
e||-------------------|
b||-------------------|
g||-------------------|
d||-2--5-5--7---------|
a||-2--5-5--7---------|
e||-0--3-3--5---------|
    P.M---|

e||---------------------------------------------------|
b||---------------------------------------------------|
g||-5--5-5-5--7--7-7-7--------------------------4~~~--|
d||-5--5-5-5--7--7-7-7--7--7-7-7-5-7---2--------------|
a||-3--3-3-3--5--5-5-5--7--7-7-7-5-7---2-----2--------|
e||---------------------5--5-5-5-3-5---0--0-----------|
   P.M------------------------------|          P.H.    

Added On December 16th, 2013

SHARE

Comments

blog comments powered by Disqus

ADVERTISEMENT