Down Tabs

Beautifully Depressed

1 versions

TAB

            Drop B

Just the rythm stuff,


For the main riff:
-----------------------------|
-----------------------------|
-----------------------------|
------------------5---5-7----|
--0--0--3---------3---3-5----|
--0--0--3---0--0----0--------|

Chorus:
-------------------------------------------------|
-------------------------------------------------|
-------------------------------------------------|
--5-5-5-5-5---X-X--X--X-X--4-4-4-4-4--3-3-3-3-3--|
--3-3-3-3-3---X-X--X--X-X--2-2-2-2-2--1-1-1-1-1--|
--------------X-X--X--X-X------------------------|

and then:
------------------------------------------|
------------------------------------------|
------------------------------------------|
------------------------------------------|
--------0-3-2---2-3--5-3-2-0--------------|
-0--3-5------------------------3-5--5-3---|    

Added On December 16th, 2013

SHARE

Comments

blog comments powered by Disqus

ADVERTISEMENT