Down Tabs

New Orleans Is A Dying Whore

1 versions

TAB

            New Orleans Is A Dying Whore Tab by Down


New Orleans is a dying whore

BY DOWN
from the new album 'a bustle in your hedgerow'

transcribed by Christian Reindel (creindel@gmx.de)
any questions or corrections- e-mail me

TUNE DOWN ONE AND A HALF STEP - enjoy the power of DOWN

: artificial harmonics

    Intro
C#:|-----------------------------------------------------------|
G#:|-----------------------------------------------------------|
E :|-----------------------------------------------------------|
B :|-----------------------------------------------------------|
G#:|-2--2--2--2---------------------2--2--2--2--5-7--5-7-------|
C#:|-0--0--0--0--5/3-0h3-3\5-5/3----0--0--0--0--3-5--3-5--3h5--|

    Verse
C#:|-----------------------------------------------------------|
G#:|-----------------------------------------------------------|
E :|-----------------------------------------------------------|
B :|-----------------------------------------------------------|
G#:|-2--2--2--2---------------------2--2--2--2--5--------------|
C#:|-0--0--0--0--5/3-0h3-3\5-5/3----0--0--0--0--3-5~~~~~~------|

    Chorus
C#:|---------------------------------------|
G#:|---------------------------------------|
E :|---------------------------------------|
B :|---------------------------7--6--------|
G#:|---------------------5--4--------|
C#:|-0-3-5--------0-3-5-----------4--------|

   Guitarsolo
C#:|-------------------------------------------------------------------|
G#:|-------------------------------------------------------------------|
E :|-------------------------------------------------------------------|
B :|-------------------------------------------------------------------|
G#:|-2-2-2-2-2-2-2-2------------------2-2-2-2-2-2-2-2-2--5-7--5-7--5-7-|
C#:|-0-0-0-0-0-0-0-0-5/3-0h3-3\5-5/3--0-0-0-0-0-0-0-0-0--3-5--3-5--3-5-|

  Guitarsolo continues
C#:|---------------------------------------------------|
G#:|---------------------------------------------------|
E :|---------------------------------------------------|
B :|---------------------------------------------------|
G#:|-3--3-3-/-6--6-6h8--8--8-8--9-10---9-10---9-10-----|
C#:|----------------------------7--8---7--8---7--8-----|


  Outro
C#:|---------------------------------------|
G#:|---------------------------------------|
E :|---------------------------------------|
B :|---------------------------7--6--------|
G#:|-------5------------5------5--4--------|
C#:|-0-3-5--------0-3-5-----------4--------|

end.    

Added On December 4th, 2013

SHARE

Comments

blog comments powered by Disqus

ADVERTISEMENT