Dropkick Murphys Tabs

Forever

3 versions

TAB

            Forever Tab by Dropkick Murphys


Song: Forever
Artist: Dropkick Murphy's 
Album: Sing Loud, Sing Proud
Tabbed by: Vincent Slot (vincentslot@gmail.com)

MAIN RIFF (played throughout the song)
Strike each chord several times

    C    C    F    G
e|---------------------|
B|---------------------|
G|--9----9----10---12--|
D|--10---10---10---12--|
A|--10---10---8----10--|
E|--8----8-------------|

INTERLUDES (with flute)

    C         G           F    E   D
e|------------------------------------------|
B|------------------------------------------| 3x
G|------------12--12-12---10---9------------|
D|--10---10---12--12-12---10---9---12---12--|
A|--10---10---10--10-10---8----7---12---12--|
E|--8----8-------------------------10---10--|

    C    G
e|------------------------------|
B|------------------------------|
G|------------12--12-12--12-12--|
D|--10---10---12--12-12--12-12--|
A|--10---10---10--10-10--10-10--|
E|--8----8----------------------|

BRIDGE

    F                           G   F   C
e|------------------------------------------|
B|------------------------------------------|
G|--10-x-x--10-x-x--10-x-x--10--12--10------|
D|--10-x-x--10-x-x--10-x-x--10--12--10--10--|
A|--8--x-x--8--x-x--8--x-x--8---10--8---10--|
E|--------------------------------------8---|

That's it! Corrections to vincentslot@gmail.com    

Added On December 4th, 2013

SHARE

Comments

blog comments powered by Disqus

VERSIONS

ADVERTISEMENT