Eagles Of Death Metal Tabs

Dethdealer

1 versions

TAB

            Dethdealer Tab by Eagles Of Death Metal


Ok,Super rare song by EODM, not 100% about this, but here goes nothing.If anyone has
song it would MUCH appreciated if you could email it to me, because this is a tab I had to
from memory. I may not have the number of times/chord pattern COMPLETELY right, but if 
one of the lucky few who own this song, all you have to do is listen and I'm sure
figure it out just fine.


Song Name: DethDealer
Artist: Eagles Of Death Metal
Tabbed by: thedevil
Email: thedevil123456789@hotmail.com
Tuning: G/G/D/G/B/D
                         INTRO
D|--------------------------------------------------------------------------|
B|--------------------------------------------------------------------------|
G|-4------6464--------------------------------------------------------------|
D|-4(X10)-6464--------------------------------------------------------------|
G|-4------4444--------------------------------------------------------------|
G|-4------4444--------------------------------------------------------------|
                         VERSE
D|--------------------------------------------|
B|--------------------------------------------|
G|-4------6464--------------------------------|
D|-4(X10)-6464--------------------------------|(X4)
G|-4------4444--------------------------------|
G|-4------4444--------------------------------|
                        SECOND PART OF VERSE
D|--------------------------------------------|
B|--------------------------------------------|
G|-4/66-8686----------------------------------|   (X2) THEN SLIDE BACK INTO
D|-4/66-8686----------------------------------|   FIRST PART OF VERSE
G|-4/66-6666----------------------------------|
G|-4/66-6666----------------------------------|
                        CHORUS
D|--------------------------------------------------------------------------|
B|--------------------------------------------------------------------------|
G|-55-7575-----------------------555/66-8686-666----------------------------|
D|-55-7575 (DO THIS PART 2X,THEN)555/66-8686-666----------------------------|
G|-55-5555-----------------------555/66-6666-666----------------------------|
G|-55-5555-----------------------555/66-6666-666----------------------------|
                       SECOND PART OF CHORUS
D|--------------------------------------------------------------------------|
B|--------------------------------------------------------------------------|
G|-44-6464-4444-------------------4-22--------------------------------------|
D|-44-6464-4444(DO THIS 3X, THEN)-4-22--------------------------------------|
G|-44-4444-4444-------------------4-22--------------------------------------|
G|-44-4444-4444-------------------4-22--------------------------------------|
                      LAST TIME BEFORE BACK INTO VERSE
e|--------------------------------------------------------------------------|
B|--------------------------------------------------------------------------|
G|-22-222/4-----------------------------------------------------------------|
D|-22-222/4-----------------------------------------------------------------|
A|-22-222/4-----------------------------------------------------------------|
E|-22-222/4-----------------------------------------------------------------|

So there ya go, that may look a bit weird, but like I said, all ya have to do is listen
you should be able to get it. There is a solo as well (I think) but I don’t remember it.
if this turns out to be wrong, it’s the best I can do by memory, and it sounds right to 
but if you play it, and it sounds wrong then that means you have a copy, therefore if
tab is wrong you could send me that copy so I can fix any mistakes I've made.    

Added On December 16th, 2013

SHARE

Comments

blog comments powered by Disqus

ADVERTISEMENT