Eagles Of Death Metal Tabs

Midnight Creeper

3 versions

TAB

            Midnight Creeper Tab by Eagles Of Death Metal


-----------------------------------------------------------------------------          

Midnight Creeper - Eagles of Death Metal
-----------------------------------------------------------------------------
Tabbed by: Russ Horn
Email:russhorn@gmail.com

Some stuff is a little off, there are some lower notes played druing the verse,
but my ear is bad at low notes.Oh and don't be afraid 
to hit extra strings.

Tuning: Standard

Intro: Play a bunch

e|--------------------------------------------------------------------------|
B|3-0---0---0---------------------------------------------------------------|
G|----3---3---0--0-0--------------------------------------------------------|
D|--------------------------------------------------------------------------|
A|--------------------------------------------------------------------------|
E|--------------------------------------------------------------------------|

Verse: Play 3 times

e|-0-3-3-1-1-0-0------------------------------------------------------------|
B|-0-0-0-0-0-0-0------------------------------------------------------------|
G|--------------------------------------------------------------------------|
D|--------------------------------------------------------------------------|
A|--------------------------------------------------------------------------|
E|--------------------------------------------------------------------------|



| /  slide up
| \  slide down
| h  hammer-on
| p  pull-off
| ~  vibrato
| +  harmonic
| x  Mute note
=============================================================================    

Added On December 4th, 2013

SHARE

Comments

blog comments powered by Disqus

VERSIONS

ADVERTISEMENT