Earshot Tabs

Wait

4 versions

TAB

            Wait Tab by Earshot


-----------------------------------------------------------------------------
			     WAIT - EARSHOT
-----------------------------------------------------------------------------

Tabbed by: xavier
Email: the_jackass_dude_not@hotmail.com

Tuning: Db, Ab, Db, Gb, Bb, Eb.

Intro: Repeat the number of times necessary.

Eb|-x------------------------------------|
Bb|-x------------------------------------|
Gb|-x------------------------------------|
Db|-12--0--0--1p0--0--0---10/12----------|
Ab|-12--0--0--1p0--0--0---10/12----------|
Db|-12--0--0--1p0--0--0---10/12----------|

Verse: Repeat this the number of times necessary.

Eb|-x------------------------------------|
Bb|-x------------------------------------|
Gb|-x------------------------------------|
Db|-12--0--0--1p0--0--0---10/12----------|
Ab|-12--0--0--1p0--0--0---10/12----------|
Db|-12--0--0--1p0--0--0---10/12----------|
 PM x   x  x  x x  x  x   x  x

Chorus:

Eb|-------------------------|
Bb|-------------------------|
Gb|-------------------------|
Db|-0----3----8-------------|
Ab|-0----3----8-------------|
Db|-0----3----8-------------|


Interlude:

Eb|--------------------------|
Bb|--------------------------|
Gb|--------------------------|
Db|---0--0--0--0-------------|   Repeat then go to chorus.
Ab|---0--0--0--0-------------|
Db|---0--0--0--0-------------|
 PM   x  x  x  x


This is a great song, enjoy it, i'll try to get the little fills during the verse.    

Added On December 4th, 2013

SHARE

Comments

blog comments powered by Disqus

VERSIONS

ADVERTISEMENT