Ebba Gron Tabs

Ung Och Kat

1 versions

TAB

            Ung Och Kat Tab by Ebba Gron


----------------------------------------------------------------------------
			     Ung och Kåt - Ebba Grön
---------------------------------------------------------------------------
Tabbed by: Hector
Email: heckee@gmail.com

Tuning: Standard tuning
How to play it.

 /  slide up
 \  slide down
 h  hammer-on
 p  pull-off
 ~  vibrato
 +  harmonic
 x  Palm mute
 använd dist!

Är inte säker på låten, låter helt ok för mig. Synpunkter? Maila.
Intro:
e|----------------------------------------------------------------------|
B|----------------------------------------------------------------------|
G|----------------------------------------------------------------------|
D|----------------------2-22--------------------------------------------|
A|-----0-0----0-0-------0-00-000-------0----0---------------------------|
E|--0/2----0/2---------------222-00-0/2--0/2----------------------------|


e|----------------------------------------------------------------------|
B|----------------------------------------------------------------------|
G|----------------------------------------------------------------------|
D|----------------------2-22--------------------------------------------|
A|-----0-0----0-0-------0-00-000-------0----0---------------------------|
E|--0/2----0/2---------------222-00-0/2--0/2----------------------------|


Inte säker på denna. Lätt PM, så det låter så ljust som möjligt.
Vers:
"Jag vill känna köttets lustar, jag vill va som djuren i naturen..."
e|-------------------------------------------------------------------|
B|-------------------------------------------------------------------|
G|--------------2x2x-------------------------------------------------|
D|---2-2x2x2x2x-0x0x-2x2x2x2x2x--------------------------------------|
A|---0-0x0x0x0x------0x0x0x0x0x--------------------------------------|
E|-------------------------------------------------------------------|

Jobbar på den. snart klar. illailla.    

Added On December 4th, 2013

SHARE

Comments

blog comments powered by Disqus

ADVERTISEMENT