Eddie Vedder Tabs

Far Behind

1 versions

TAB

            Far Behind - Eddie Vedder
-------------------------------------------------------------------------------
Tabbed by: Rob T
Email:

Tuning:  Standard

Intro
e|---------------------------------------------------------------------------|
B|---------------------------------------------------------------------------|
G|--999--------------------999---------------999----------------999----------|
D|--999--------------------999---------------999----------------999----------|
A|--777--0-------7-5-0-----777---0-0-7-5-0---777--------555-7---777----------|
E|----------0-0---------0---------------------------777----------------------|

Verse
e|---------------------------------------------------------------------------|
B|---------------------------------------------------------------------------|
G|---------------------------------------------------------------------------|
D|----99-----------99--------------99----------repeat this a few times-------|
A|----99-----------99--------------99----------------------------------------|
E|----77---5-7-5---77---5---7---5--77----------------------------------------|

Chorus
e|---------------------------------------------------------------------------|
B|--4-----------5------------------------------------------------------------|
G|--5-----6-----6------------------------------------------------------------|
D|--6-----6-----7------9-----------listen for how often to strum each note---|
A|--6-----4-----7------9-----------------------------------------------------|
E|--4-----------5------7-----------------------------------------------------|

Interlude
e|---------------------------------------------------------------------------|
B|---5-----7-----------------------------------------------------------------|
G|---6-----8-----------------------------------------------------------------|
D|---7-----9----------------strum or finger pick-----------------------------|
A|---7-----9-----------------------------------------------------------------|
E|---5-----7-----------------------------------------------------------------|

Intro
Verse
Chorus
Verse
Chorus
Verse
Interlude
Verse    

Added On December 16th, 2013

SHARE

Comments

blog comments powered by Disqus

ADVERTISEMENT