Editors Tabs

Racing Rats

4 versions

TAB

            Done an updated version of my first one! hope its better!

Intro/Main Riff Rhythm/Verse (Piano/Guitar 1):

|---------------------------------------------------------------------|
|-----0---------------------------------------------------------------|
|-----0-----2--3-----5-----3--2-------(Repeat few times)--------------|
|-----2-----0--2-----2-----2--0---------------------------------------|
|-----------0--1-----3-----1--0---------------------------------------|
|---------------------------------------------------------------------|

OR

|--3----5--6-----------6--5-------------------------------------------------|
|--5----7--8------3----8--7-------------------------------------------------|
|--5----7--8------5----8--7------------(Repeat few times)-------------------|
|-----------------5---------------------------------------------------------|
|---------------------------------------------------------------------------|
|---------------------------------------------------------------------------|

Intro/Verse (Guitar 2) Overlaps Guitar One Rhythm
|-----------------------------------------------------------------------------------------------|
|-----------------------------------------------------------------------------------------------|
|-----------------------------------------------------------------------------------------------|
|----9-9-9-9-9-11-11-11-12-12-12-12-12-12-12-12----------------12-12-12-11-11-11-11-11-11-11-11-|
|-----------------------------------------------10-10-10-10-10----------------------------------|
|-----------------------------------------------------------------------------------------------|


Main Riff (Nice!):
 
|-----------------------------------------------------------------------------------------------------------|
|-----------------------------------------------------------------------------------------------------------|
|-----------------------------------------------------------------------------------------------------------|
|-------------------12-9-9-9-9-11-11-11-12-12-12------------------------------------------11-11-11-12-12-12-|
|----------------12----------------------------------------------12-12-12-12-12-12-12-12--------------------|
|-15-15-15-15-12----------------------------------10-10-10-10-12--------------------------------------------|

Chorus Guitar 1(Played For Entire Chorus)

|----------------------------|
|----------------------------|
|----------------------------|
|-----9----9----9----9-------|
|-----8----8----8----8-------|
|----------------------------|

Chorus Guitar 2
|---------------------------------------------------------|
|---------------------------------------------------------|
|---------------------------------------------------------|
|-------------------------------------------------9(x8)---|
|---------------------------------------------------------|
|----12-10-10-12-10-10-12-10-10-12-10-10-12-10-15---------|


Chorus Guitar 2 Continued
|---------------------------------------------------------------------|
|---------------------------------------------------------------------|
|---------------------------------------------------------------------|
|---------------------------------------------------------------------|
|--------------------------------------------------Tremelo Pick-------|
|----12-10-10-12-10-10-12-10-10-12-10-10-12///17-17-17-17-17-17-17-17-|

Verse 2 Solo Bit(Can't Quite Figure The Timing Out, But Notes Are Correct)
|-------------------------------------------------------------------|
|-------------------------------------------------------------------|
|-------------------------------------------------------------------|
|----------------5-2-2-2-4-4-4-4-------------5-4-4-4-5-5-5----------|
|-------------------------------------------------------------------| 
|----7-7-7-7-3-0-----------------7-7-7-7-3-0------------------------|

Bridge (All Tremelo Picking) Repeat As Neccessary
|--------------------------------------------------------------------------------------|
|--------------------------------------------------------------------------------------|
|--------------------------------------------------------------------------------------|
|--------------------------------------------------------------------------------------|
|--------------------------------------------------------------------------------------|
|--10-10-10-10-10-10-10-10-7-7-7-7-7-7-7-7-12-12-12-12-12-12-12-12-10-10-10-10-7-7-8-8-|

Just a bit more to work out, bit its very distorted in places :(
cheers, Andrew
andrew.finian@gmail.com    

Added On December 16th, 2013

SHARE

Comments

blog comments powered by Disqus

VERSIONS

ADVERTISEMENT