Editors Tabs

The Racing Rats

1 versions

TAB

            I've changed it to normal tab reading...

Intro/Main Riff Rhythm/Verse (Piano/Guitar 1):

|-----0-----2--3-----0-----3--2---------------------------------------|
|-----0-----3--0-----1-----0--3---------------------------------------|
|-----0-----2--0-----2-----0--2-------(Repeat few times)--------------|
|-----2-----0--0-----2-----0--0---------------------------------------|
|-----2-----0--2-----0-----2--0---------------------------------------|
|-----0-----0--3-----0-----3--0---------------------------------------|

Intro/Verse (Guitar 2) Overlaps Guitar One Rhythm
|-----------------------------------------------------------------------------------------------|
|-----------------------------------------------10-10-10-10-10----------------------------------|
|----9-9-9-9-9-11-11-11-12-12-12-12-12-12-12-12----------------12-12-12-11-11-11-11-11-11-11-11-|
|-----------------------------------------------------------------------------------------------|
|-----------------------------------------------------------------------------------------------|
|-----------------------------------------------------------------------------------------------|


Main Riff (Nice!):
|-15-15-15-15-12----------------------------------10-10-10-10-12--------------------------------------------|
|----------------12----------------------------------------------12-12-12-12-12-12-12-12--------------------|
|-------------------12-9-9-9-9-11-11-11-12-12-12------------------------------------------11-11-11-12-12-12-|
|-----------------------------------------------------------------------------------------------------------|
|-----------------------------------------------------------------------------------------------------------|
|-----------------------------------------------------------------------------------------------------------|

Chorus Guitar 1(Played For Entire Chorus)

|----------------------------|
|-----8----8----8----8-------|
|-----9----9----9----9-------|
|----------------------------|
|----------------------------|
|----------------------------|

Chorus Guitar 2
|----12-10-10-12-10-10-12-10-10-12-10-10-12-10-15---------|
|---------------------------------------------------------|
|-------------------------------------------------9(x8)---|
|---------------------------------------------------------|
|---------------------------------------------------------|
|---------------------------------------------------------|



Chorus Guitar 2 Continued
                                                   Tremelo Pick
|----12-10-10-12-10-10-12-10-10-12-10-10-12///17-17-17-17-17-17-17-17-|
|---------------------------------------------------------------------|
|---------------------------------------------------------------------|
|---------------------------------------------------------------------|
|---------------------------------------------------------------------|
|---------------------------------------------------------------------|


Verse 2 Solo Bit(Can't Quite Figure The Timing Out, But Notes Are Correct)
|----7-7-7-7-3-0-----------------7-7-7-7-3-0------------------------|
|-------------------------------------------------------------------|
|----------------5-2-2-2-4-4-4-4-------------5-4-4-4-5-5-5----------|
|-------------------------------------------------------------------|
|-------------------------------------------------------------------|
|-------------------------------------------------------------------| 


Bridge (All Tremelo Picking) Repeat As Neccessary
|--10-10-10-10-10-10-10-10-7-7-7-7-7-7-7-7-12-12-12-12-12-12-12-12-10-10-10-10-7-7-8-8-|
|--------------------------------------------------------------------------------------|
|--------------------------------------------------------------------------------------|
|--------------------------------------------------------------------------------------|
|--------------------------------------------------------------------------------------|
|--------------------------------------------------------------------------------------|    

Added On December 16th, 2013

SHARE

Comments

blog comments powered by Disqus

ADVERTISEMENT