Eels Tabs

Saturday Morning

2 versions

TAB

            Saturday Morning Chords by Eels

----------------------------------------------------------------------------
			 Saturday Morning - The Eels
----------------------------------------------------------------------------
Tabbed by: Preid
Email: fenders_faith@hotmail.com

Tuning: EADGBe


Thats the main riff for the whole song, not sure about the chorus but this im my 1st
time at this tab game

e|----x--x--0--x--x--0--5--5--0--7--7----------------------------------------|
B|----9--9--0--7--7--0--5--5--0--7--7----------------------------------------|
G|----9--9--0--7--7--0--6--6--0--8--8----------------------------------------|
D|----9--9--0--7--7--0--7--7--0--9--9----------------------------------------|
A|----7--7--0--5--5--0--7--7--0--9--9----------------------------------------|
E|----x--x--0--x--x--0--5--5--0--7--7----------------------------------------|

Chorus build up is just E major on the 5th string as route, strum 3/4's then back to
main riff. Great song, i love it.

 x  Mute note
============================================================================    

Added On December 4th, 2013

SHARE

Comments

blog comments powered by Disqus

VERSIONS

ADVERTISEMENT