Ektomorf Tabs

No Compromise

1 versions

TAB

            No Compromise by Ektomorf
from Destroy
Drop C Tuning

INTRO
D--------------------|
A--------------------|
F--------------------|
C--------------------|
G-0-12-0--0-12-12-0--|
C-0-12-0--0-12-12-0--|

VERSE
D------------------|
A------------------|
F------------------|
C------------------|
G-0-0/12-0-0/12-0--|
C-0-0/12-0-0/12-0--|

0.41
D----------------|
A----------------|
F----------------| sb = slight bend
C----------------|
G----------------| tremolo pick the 0s
C-000000-12sb-0--|

D----------------|
A----11p7-7h8p7--|
F-8~-------------|
C----------------|
G----------------|
C----------------|

2.16
D------------------|
A------------------|
F------------------|
C------------------|
G-0-1-2-1-0-1-2-1--|
C-0-1-2-1-0-1-2-1--|

OUTRO
D--------------|
A--------------|
F--------------|
C--------------|
G-0-0-0-2-1-0--|
C-0-0-0-2-1-0--|

Any corrections please comment
Thanks    

Added On December 16th, 2013

SHARE

Comments

blog comments powered by Disqus

ADVERTISEMENT