Ektomorf Tabs

The One

1 versions

TAB

            -------------------------------------------------------------------------------
			     The One - Ektomorf
-------------------------------------------------------------------------------
Tabbed by: magg0t 
Email: ex.cs(at)centrum(dot)cz

Tuning: Standard A (A-D-G-C-E-A) low to high

A|---------------------------------------------------------------------------| 
E|---------------------------------------------------------------------------| 4x
C|---------------------------------------------------------------------------|
G|---------------------------------------------------------------------------|
D|---------------------------------------------------------------------------|
A|--5-5-5-6-6-6-5-5-5-5-5-5-5-5----------------------------------------------|

A|---------------------------------------------------------------------------|
E|---------------------------------------------------------------------------| 4x
C|---------------------------------------------------------------------------|
G|---------------------------------------------------------------------------|
D|---------------------------------------------------------------------------|
A|--5-5-5-6-6-6-3*-3*--3*--3*-3*-3*------------------------------------------|

A|-------------------------------|-------------------------------------------|
E|-------------------------------|-------------------------------------------| 2x
C|-------------------------------|-------------------------------------------|
G|-------------------------------|-------------------------------------------|
D|-------------------------------|-------------------------------------------|
A|--5-5-5-6-6-6-5-5-5-5-5-5-5-5--|--5-5-5-6-6-6-2-2-2-2-2-2-2-2--------------|

A|---------------------------------------------------------------------------|
E|---------------------------------------------------------------------------| 4x
C|---------------------------------------------------------------------------|
G|---------------------------------------------------------------------------|
D|--7-7-7777--10-10-10101010--2-2-2222--5-5-5555-----------------------------|
A|--5-5-5555--8--8--8-8-8-8---0-0-0000--3-3-3333-----------------------------|

A|---------------------------------------------------------------------------|
E|---------------------------------------------------------------------------| 8x
C|---------------------------------------------------------------------------|
G|---------------------------------------------------------------------------|
D|---------------------------------------------------------------------------|
A|--1p0-0-0-0----------------------------------------------------------------|

A|---------------------------------------------------------------------------|
E|---------------------------------------------------------------------------| 8x
C|---------------------------------------------------------------------------|
G|---------------------------------------------------------------------------|
D|---------------------------------------------------------------------------|
A|--0-0-0-3*-3*-3*-3*-3*-3*-3*-3*-3*-3*-3*-3*-3*-----------------------------|
    . . . 

A|---------------------------------------------------------------------------|
E|---------------------------------------------------------------------------| 4x
C|---------------------------------------------------------------------------|
G|---------------------------------------------------------------------------|
D|--------5-6-3-2--------5-6-5-2--------5-6-5-2------2------2----------------|
A|--0-0-0-3-4-3-0--0-0-0-3-4-3-0--0-0-0-3-4-3-0--0-0-0--0-0-0----------------|
    . . .          . . .          . . .          . .    . .

A|---------------------------------------------------------------------------|
E|---------------------------------------------------------------------------| 4x 
C|---------------------------------------------------------------------------|
G|---------------------------------------------------------------------------|
D|---------------------------------------------------------------------------|
A|--5-5-5-6-6-6-5-5-5-5-5-5-5-5----------------------------------------------|

A|---------------------------------------------------------------------------|
E|---------------------------------------------------------------------------| 1x
C|---------------------------------------------------------------------------|
G|---------------------------------------------------------------------------|
D|--2---5--------------------------------------------------------------------|
A|--0---3--------------------------------------------------------------------|

A|---------------------------------------------------------------------------|
E|---------------------------------------------------------------------------| 4x
C|---------------------------------------------------------------------------|
G|---------------------------------------------------------------------------|
D|--7-7-7777--10-10-10101010--2-2-2222--5-5-5555-----------------------------|
A|--5-5-5555--8--8--8-8-8-8---0-0-0000--3-3-3333-----------------------------|

A|---------------------------------------------------------------------------|
E|---------------------------------------------------------------------------| 8x
C|---------------------------------------------------------------------------|
G|---------------------------------------------------------------------------|
D|---------------------------------------------------------------------------|
A|--1p0-0-0-0----------------------------------------------------------------|



************************************

| .   palm mute
| /   slide up
| \   slide down
| h   hammer-on
| p   pull-off
| ~   vibrato
| *   natural harmonic
| x   Mute note
| b   Bend
| pb  Pre-bend
| br  Bend release
| pbr Pre-bend release
| brb Bend release bend

************************************    

Added On December 16th, 2013

SHARE

Comments

blog comments powered by Disqus

ADVERTISEMENT