El Canto Del Loco Tabs

Volvera A Disfrutar

1 versions

TAB

            The intro is very simple:

   G                 C           G
eb|-3-3-3-----3---3-3-0-3-3-3-----3---3-3-0|
Bb|-0-0-0-----0---0-0-1-0-0-0-----0---0-0-1|
Gb|-0-0-0-----0---0-0-0-0-0-0-----0---0-0-0|
Db|-0-0-0-----0---0-0-2-0-0-0-----0---0-0-2|
Ab|-2-2-2-----2---2-2-3-2-2-2-----2---2-2-3|
Eb|-3-3-3-----3---3-3---3-3-3-----3---3-3--|

Now comes a verse, which we use palm muting for: just hold the end of your wrist just 
the treble pickup.

   G                       C                       Em
eb|---------------------------------------------------------------|
Bb|---------------------------------------------------------------|
Gb|---------------------------------------------------------------|
Db|---------------------------------------------------------------|
Ab|-------------------------3-3-3-3-3-3-3-3-3-3-3-3-2-2-2-2-2-2---|
Eb|-3-3-3-3-3-3-3-3-3-3-3-3---------------------------------------|

    D           G           G        C
eb|----------------------------------------|
Bb|----------------------------------------|
Gb|-2-2-2-2-2-2----------------------------|
Db|----------------------------------------|            X2
Ab|----------------------------------3-3-3-|
Eb|-------------3-3-3-3-3-3-3-3-3-3--------|

Now comes the pre-chorus:

    Em         D/F#         G           Am
eb|---------------------------------------------------|
Bb|---------------------------------------------------|
Gb|-------------2-2-2-2-2-2---------------------------|
Db|---------------------------------------2-2-2-2-2-2-|
Ab|-2-2-2-2-2-2---------------------------------------|
Eb|-------------------------3-3-3-3-3-3---------------|

For the chorus, use normal strumming:

    C    D           G           Em          Am          D
eb|-0-0--2-2-2-2-2-2-3-3-3-3-3-3-0-0-0-0-0-0-0-0-0-0-0-0-2-2-2-2-2-2|
Bb|-1-1--3-3-3-3-3-3-0-0-0-0-0-0-0-0-0-0-0-0-1-1-1-1-1-1-3-3-3-3-3-3|
Gb|-0-0--2-2-2-2-2-2-0-0-0-0-0-0-0-0-0-0-0-0-2-2-2-2-2-2-2-2-2-2-2-2|
Db|-2-2--0-0-0-0-0-0-0-0-0-0-0-0-2-0-0-0-0-0-2-2-2-2-2-2-0-0-0-0-0-0|
Ab|-3-3--------------2-2-2-2-2-2-2-0-0-0-0-0-0-0-0-0-0-0------------|
Eb|------------------3-3-3-3-3-3-0-0-0-0-0-0------------------------|
The Am and D have 2 bars, and, in the second time, you change the Am for a C

Intro

Verse

Pre chorus

Chorus

Intro

This is about the amount of basic info you need for this song. And please feel free to 
me and send any questions.    

Added On December 16th, 2013

SHARE

Comments

blog comments powered by Disqus

ADVERTISEMENT