Elizabeth Gillies Tabs

Fast Car

1 versions

TAB

            Capo on 4th fret.
Intro:
e|-------------------| 
B|1---8----1----8---7|
G|-------------------| x6
D|------------------0|
A|3---7----3----7----|
E|-------------------|

(...but me myself you got nothing to prove)
e|-------------|
B|0h1-3---8---7|
G|-------------| x17
D|------------0|
A|3---3---7----|
E|-------------|

(I remember when we were driving driving in your car...)

  C       Em      G     D
e|-----|-------|----3--|---2|
B|1----|-------|-------|---3|
G|-----|-------|-------|---2| x3
D|2----|---2---|-------|----|
A|3----|---2---|----2--|----|
E|-----|-------|----3--|----|

(be someone, be someone, be someone...)

e|---------------|
B|0h1---3---8---7|
G|---------------| 
D|--------------0|
A|3-----3---7----|
E|---------------|    

Added On December 16th, 2013

SHARE

Comments

blog comments powered by Disqus

ADVERTISEMENT