Elliott Smith Tabs

No Name 4

1 versions

TAB

            -------------------------------------------------------------------------------
			     NO NAME #4 - Elliott Smith
-------------------------------------------------------------------------------
Email: theymightnotbegiants@hotmail.com

Tuning: EADGBe


This is a combination of the bassline's melody and the chords. 
I've also added the strumming pattern in for the notes to make
things slightly easier. Try to play it with your thumb and make
it as light as possible.

Intro/End:
    E (chord)
   V V V ^ V ^ V V V ^ V V V ^ V V V ^ V ^ V V V ^ V V V ^ 
e|---0-0-0-0-0---0-0-0-0---0-0---0-0-0-0-0---0-0-0-0---0-0|
B|---0-0-0-0-0---0-0-0-0---0-0---0-0-0-0-0---0-0-0-0---0-0|
G|---1-1-1-1-1---1-1-1-1---1-1---1-1-1-1-1---1-1-1-1---1-1|
D|---2-2-2-2-2---2-2-2-2-2-------2-2-2-2-2---2-2-2-2-2----|
A|---2-2-2-2-2-2-----------------2-2-2-2-2-2--------------|
E|-0---------------------------0--------------------------| x2



Riff One:
   E                                           D
   V V V ^ V ^ V V ^ V V ^ V V ^ V   V ^ V V ^ V V V ^ V ^ V V V ^ V ^ V V V ^ V ^ V V V ^ V ^
e|---0-0-0-0-0---0-0---0-0---0-0-----0-0---0-0---2-2-2-2-2---2-2-2-2-2---0-0-0-0-0---0-0-0-0-0|
B|---0-0-0-0-0---0-0---0-0---0-0-----0-0---0-0---3-3-3-3-3---3-3-3-3-3---2-2-2-2-2---2-2-2-2-2|
G|---1-1-1-1-1---1-1---1-1---1-1-----1-1---1-1---2-2-2-2-2---2-2-2-2-2---2-2-2-2-2---2-2-2-2-2|
D|---2-2-2-2-2---2-2-2-----1-----1h2-----1-----0-----------0-------------2-2-2-2-2---2-2-2-2-2|
A|---2-2-2-2-2-2-------------------------------------------------------0-----------0----------|
E|-0------------------------------------------------------------------------------------------| x2

   F#                      Bmaj7
   V V V ^ V ^ V V ^ V V ^ V V V ^ V ^ V V V ^ V ^
e|---2-2-2-2-2---2-2---2-2---2-2-2-2-2---2-2-2-2-2--|
B|---2-2-2-2-2---2-2---2-2---4-4-4-4-4---4-4-4-4-4--|
G|---3-3-3-3-3---3-3---3-3---2-2-2-2-2---2-2-2-2-2--|
D|---4-4-4-4-4---4-4---4-4---4-4-4-4-4---4-4-4-4-4--|
A|---4-4-4-4-4---4-4---4-4-2-----------2------------|
E|-2-----------4-----5------------------------------|




Riff Two:
   E                       D           A
   V V V ^ V ^ V V ^ V V ^ V V V ^ V ^ V V V ^ V ^
e|---0-0-0-0-0---0-0---0-0---2-2-2-2-2---0-0-0-0-0--|
B|---0-0-0-0-0---0-0---0-0---3-3-3-3-3---2-2-2-2-2--|
G|---1-1-1-1-1---1-1---1-1---2-2-2-2-2---2-2-2-2-2--|
D|---2-2-2-2-2-2-----1-----0-------------2-2-2-2-2--|
A|---2-2-2-2-2-------------------------0------------|
E|-0------------------------------------------------|



Riff Three: 

   E                       F#7add4                  Gadd6
   V V V ^ V ^ V V V ^ V ^ V V V ^ V ^ V V V ^ V ^ V V V ^ V ^ V V V ^ V ^ V V V ^ V ^
e|---0-0-0-0-0---0-0-0-0-0---0-0-0-0-0---0-0-0-0-0---0-0-0-0-0---0-0-0-0-0---0-0-0-0-0--|
B|---0-0-0-0-0---0-0-0-0-0---0-0-0-0-0---0-0-0-0-0---0-0-0-0-0---0-0-0-0-0---0-0-0-0-0--|
G|---1-1-1-1-1---1-1-1-1-1---3-3-3-3-3---3-3-3-3-3---4-4-4-4-4---3-3-3-3-3---1-1-1-1-1--|
D|---2-2-2-2-2---2-2-2-2-2---4-4-4-4-4---4-4-4-4-4---5-5-5-5-5---4-4-4-4-4---2-2-2-2-2--|
A|---2-2-2-2-2---2-2-2-2-2---4-4-4-4-4---4-4-4-4-4---5-5-5-5-5---4-4-4-4-4---2-2-2-2-2--|
E|-0-----------0-----------2-----------2-----------3-----------2-----------0------------|



These are all the main riffs of the song.

The order is:

Intro/End
Riff One
Riff Two
Riff Three
Riff One
Riff Two
Riff Three
Riff One
Riff Two
Riff Three
Riff One
Riff Two
Riff Three (x2)
Intro/End    

Added On December 16th, 2013

SHARE

Comments

blog comments powered by Disqus

ADVERTISEMENT