Elvis Presley Tabs

Amazing Grace

1 versions

TAB

            I Dont Know if Elvis ever played it like this, but I had to have a band name
I Used The -^- symbolto indicate a slide 
If you realy want to make this song sound good add your own improvision.
These notes are just the basics do what you want with it.

AMAZING GRACE
                                           
E---x--0-3-0--3---7-5-3-7--5-7-5-0-3-0-3-0---x
B---3---------0---x-x-x-0----------1-------0-3
G---0---------0---7-5-4-0----------0---------0
D---0---------x---------0----------x---------0
A---x---------x--------------------3---------x
E---3---------3------------------------------3


E---x--0-3-0--3---7-5-3-7--5-7-5--10-12-14--7-9^10-7--10
B---3---------0---x-x-x-0---------10-10-10-------------8
G---0---------0---7-5-4-0---------11-11-11-------------7
D---0---------x---------0------------------------------9
A---x---------x----------------------------------------x
E---3---------3----------------------------------------x


E--7-5-3-7--5-7-5-0-3--0-3-0----x
B--x-x-x-0----------1--------0--3
G--7-5-4-0----------0-----------0
D--------0----------x-----------0
A-------------------3-----------x
E-------------------x-----------3


E--x--0-3-0--3--7-5-3-7--5-7-5-0--3----------0--3
B--3---------0--x-x-x-0-----------0--0-1--3-----0
G--0---------0--7-5-4-0-----------0--0-0--------0
D--0---------x--------0-----------x--0-2--------0
A--x---------x--------------------x----3--------2
E--3---------3--------------------3----x--------3    

Added On December 16th, 2013

SHARE

Comments

blog comments powered by Disqus

ADVERTISEMENT