Elvis Presley Tabs

Hound Dog Solo

2 versions

TAB

            Hound Dog Tab by Elvis Presley


Presley Elivis - Houndog - Solo
Tuning: Standard
I Know This Is 100 %
|----------------------------------------------------------|
|----------------------------------------------------------|
|--------------------------------------------------------5-|
|-------1-3-1-----------------1-3-1------------------5-7---|
|---1-3-------3-1---1-3---1-3-------3-1---1-3----5-7-------|
|-3---------------3-----3---------------3-----/8-----------|

|----------8-11^1/2-8--------------------------------------|
|-----8-10------------11-10-8----8----------------------8--|
|-8-9-------------------------11---11/10-8---------8-10----|
|------------------------------------------10-9-10---------|
|----------------------------------------------------------|
|----------------------------------------------------------|

|----8-11B-----------11B-8-----------11B-8-----------------|
|-10---10--8-8/-8/-8-10----10-8-10-8-10--8-8------8--------|
|----------8-8/-8/-8-------10-8-10-8-------8------8--------|
|--------------------------------------------(10)---(10)---|
|----------------------------------------------------------|
|----------------------------------------------------------|

|----------------------------------------------------------|
|----------------------------------------------------------|
|--------5-----5-----5-------------------------------------|
|----------7-5---7-5---------------------------------------|
|-10/5-7---------------------------------------------------|
|----------------------------------------------------------|


Thats The Whole Solo , Its 100 % , Rate Me Please , Thanks    

Added On December 4th, 2013

SHARE

Comments

blog comments powered by Disqus

VERSIONS

ADVERTISEMENT