Emarosa Tabs

Even Bad Men Love Their Mothers

1 versions

TAB

            Okey...before reading how the tab goes, this is my first tab in the web...
i've made some before but just for myself and for some friends to help them out (just notes)...
Also this guys use some effects that i didn't payed much attention since i tabbed 
with my acoustic.

Anyway, i hope it's clear enough for you and Enjoy!
----------------------------------------------------------
Tuning: Drop C#

/ - Slide
h - Hammer On
p - Pull Off


1st Guitar.
(0:00 - 0:36)                  Second time add this part.
eb|---------------8/10--------|----------|
Bb|--8----------------10------|--10/13---|
Gb|----10--7-8----------10----|----------|
Db|---------------------------|----------|
Ab|---------------------------|----------|
Eb|---------------------------|----------|

(0:36 - 1:00)
eb|---10-8-----13/15---10---8---10-------|
Bb|--------10----------------10----8-----|
Gb|----------------------------------10--| x2
Db|--------------------------------------|
Ab|--------------------------------------|
Eb|--------------------------------------|

(1:00 - 1:24)
eb|---------------8/10--------|----------|
Bb|---8---------------10------|--10/13---|
Gb|-----10--7-8---------10----|----------|
Db|---------------------------|----------|
Ab|---------------------------|----------|
Eb|---------------------------|----------|


(1:25 - till end) it's hard to hear the exact notes but it goes something like:
eb|-------------|
Bb|---6----3----|
Gb|---7----5----|
Db|---7----5----|
Ab|---5----3----|
Eb|-------------|


------------------------------------------------------

2nd Guitar
There's a bit of tapping in this guitar, so i'll add a "T" on the top of the note for the notice

(0:12 - 0:36) 
eb|---6-5-------5--------6-5------------------|
Bb|-------6---6---------------6---6-----------|
Gb|---------7-------------------7----5-3--2---|
Db|-------------------------------------------|
Ab|-------------------------------------------|
Eb|-------------------------------------------|

(0:24 - 0:33) 
         T*T   T T*         T   T*T
eb|---5--6h9p6h7--------5h6h9p6h7h9-7/9-7---|
Bb|--------------6--------------------------|  * i make that tap w/ left hand
Gb|-----------------------------------------|   
Db|-----------------------------------------|
Ab|-----------------------------------------|
Eb|-----------------------------------------|

(0:36 - 0:47)   T                T* T
eb|-----10--13h17----/8-8h10p8---13h15p13-----|
Bb|---3/---------------------------------13---|
Gb|-------------------------------------------|
Db|-------------------------------------------|
Ab|-------------------------------------------|
Eb|-------------------------------------------|

(0:49 - 1:00) 
eb|----------10-15-13---10-11-10------------10------------------|
Bb|---11 10*-------------------------11-10----11-11p10/8/6/8----|
Gb|-----|  * let ring this note while playing the other 3 next--|
Db|-------------------------------------------------------------|    
Ab|-------------------------------------------------------------|
Eb|-------------------------------------------------------------|

(1:01 - 1:12) 
eb|---6-5---------------------10--------------|
Bb|-------6---6--------/11-13----11-12--8--6--|
Gb|---------7---------------------------------|
Db|-------------------------------------------|
Ab|-------------------------------------------|
Eb|-------------------------------------------|

(1:13 - 1:24) 
eb|---13--10--------10---10----------------11----13-15-13-8--|
Bb|----------11/13-----13---13-------11/13---13--------------|
Gb|----------------------------------------------------------|
Db|----------------------------------------------------------|
Ab|----------------------------------------------------------|
Eb|----------------------------------------------------------|

(1:24 - till end) 
eb|----------------------3---6h8-6h8-6p5-5------------3--|
Bb|---3/10/3---3h6-----6--------------------3h6-----6----|
Gb|---------------3--0-------------------------3-0-------|
Db|------------------------------------------------------|
Ab|------------------------------------------------------|
Eb|------------------------------------------------------|




And that's all!
hope you liked it.

Maybe i'll upload a video playing it, as soon as i get my LP back from painting 
(or just with the acoustic)
also i'll be tabbing soon Her Advice Cost Us A Life cuz i love playing this 2 songs along.    

Added On December 16th, 2013

SHARE

Comments

blog comments powered by Disqus

ADVERTISEMENT