Endstille Tabs

Above The Vault Of Heaven

1 versions

TAB

            |-------------------------------------------------------------------------------------------------|
|-------------------------------------------------------------------------------------------------|
|-10-10-10-10-10-10-10-10-10-10-10-10-10-10-10-10-10-10-10-10-10-10-10-10-10-10-10-10-10-10-10-10-|
|--7--7--7--7--7--7--7--7--7--7--7--7--7--7--7--7--7--7--7--7--7--7--7--7-------------10-10-10--8-|
|-------------------------------------------------------------------------10-10-10-10-------------|
|-------------------------------------------------------------------------------------------------|


|-------------------------------------------------------------------------------------------------|
|-------------------------------------------------------------------------------------------------|
|-15-15-15-15-15-15-15-15-15-15-15-15-15-15-15-15-10-10-10-10-10-10-10-10--9--9--9--9-10-10-10-10-|
|-14-14-14-14-14-14-14-14-17-17-17-17-14-14-14-14-12-12-12-12-12-12-12-12-12-12-12-12-12-12-12-12-|
|-------------------------------------------------------------------------------------------------|
|-------------------------------------------------------------------------------------------------|


|----------------------------------------|
|----------------------------------------|
|-10-10-10-10-6-6-6-6-9-9-9-9-5-5-5-3----|
|--7--7--7--7-5-5-5-5-6-6-6-6-2-2-2-2----|
|----------------------------------------|
|----------------------------------------|


|--------------------------------------------|
|--------------------------------------------|
|-9-9-9-9-9-9-9-9-12-12-12-12-12-12-12-12----|
|-0-0-0-0-0-0-0-0--0--0--0--0--9--9-10-10----|
|--------------------------------------------|
|--------------------------------------------|


|------------------------------------|
|------------------------------------|
|------------------------------------|
|------------------------------------|
|-2-2-2-2-3-2-2-2-8-8-8-8-9-8-8-8----|
|-0-0-0-0-0-0-0-0-6-6-6-6-6-6-6-6----|


|------------------------------------|
|------------------------------------|
|------------------------------------|
|------------------------------------|
|-2-2-2-2-3-2-2-2-3-3-3-3-4-3-3-3----|
|-0-0-0-0-0-0-0-0-1-1-1-1-1-1-1-1----|    

Added On December 16th, 2013

SHARE

Comments

blog comments powered by Disqus

ADVERTISEMENT