Endstille Tabs

Endstille Vlkerschlchter

1 versions

TAB

            --------------------------------------------------------------------------
                             Endstille (Völkerschlächter) - Endstille

--------------------------------------------------------------------------
Tabbed by: Gorundur


Tuning: D G C F A D (full step down)

Guitar Riff: (through the whole song)
D|-----------------|-----------------|-----------------|-----------------|
A|-----------------|--------0--------|-----------------|-----------------|
F|-----------------|-0--------0------|-----------------|-0----------0----|
C|--------------4--|--------------4--|--------------4--|----------5------|
G|----------2------|-----------------|----------2------|--------3--------|
D|-0------0--------|-----------------|-0------0--------|-----------------|


Filling : (just slightly audible 5:28 - end)
D|---------2-------|---------0-------|---------0-------|-----------------|
A|-----------------|-----------------|-----------------|--------3--------|
F|-----------------|-----------------|-----------------|-----------------|
C|-2---------------|-2---------------|-2---------------|-----------------|
G|-----------------|-----------------|-----------------|-----------------|
D|-----------------|-----------------|-----------------|-----------------|

The death of one man is a tragedy, The death of millions is a statistic. - Joseph Stalin    

Added On December 16th, 2013

SHARE

Comments

blog comments powered by Disqus

ADVERTISEMENT