Eric Clapton Tabs

Bell Bottom Blues Intro

2 versions

TAB

            Bell Bottom Blues Tab by Eric Clapton


Bellbottom blues
Eric clapton
 (intro)

e----------------------------------------------------------------------------|
b-------0------1-------------------------------------------------------------|
g----------------0----------1-------2---------------------------------4------|
d-----0----0h1-----2------2---2---2---2-------2-----------3---3/5--5-----5/3-|
a-2-3----------------2--2-------0----------3-----3-----3------3/5------------|
E----------------------------------------3----------1------------------------|

1st verse

e-13-------------10-----------------|
b----13--11^----------11~-----------|
g------------12~--------------------|
d-----------------------------------|
a-----------------------------------|
e-----------------------------------|    

Added On December 4th, 2013

SHARE

Comments

blog comments powered by Disqus

VERSIONS

ADVERTISEMENT