Eric Clapton Tabs

Cant Find My Way Home Intro

1 versions

TAB

            Can't find my way home

Eric Clapton

Intro
                                                                     D  D
e--------------------------------------------------------------------2--2---|
B--------------3-----------------3-----------------3-----------------3--3---|
G-----------------0-----0-----------0-----0-----------0-----0--------2--2---|
D-----------0--------0--------0--------0--------0--------0--------0---------|
A--0--2--3-----------------2-----------------1-----------------0------------|
E---------------------------------------------------------------------------|

   F  F  F  F  F  F   G  G  G  G  G
e--1--1--1--1--1--1---3--3--3--3--3-----------------------------------------|
B--1--1--1--1--1--1---3--3--3--3--3----------3--3---------------------------|
G--2--2--2--2--2--2---4--4--4--4--4-------2---------------------------------|
D--3--3--3--3--3--3---5--5--5--5--5----0-----------------0------------------|
A--3--3--3--3--3--3---5--5--5--5--5----------------3-----------0--2---------|
E--1--1--1--1--1--1---3--3--3--3--3-----------------------------------------|    

Added On December 16th, 2013

SHARE

Comments

blog comments powered by Disqus

ADVERTISEMENT