Eric Clapton Tabs

Classical Gas

3 versions

TAB

            Classical Gas Tab by Eric Clapton


I am red, this tab is for rich money

E|-------------|--------------|--------------|--------------
B|-1-------1---|---0----------|----0---------|--------------
G|-----2-------|--------------|---0--2-0-----|---2----------
D|-------------|--0-----------|--------------|--2-----------
A|-0-----------|--------------|--------------|-0------------
E|-------------|-3--------2---|-0------------|--------------

E|--------------|---------------|---------------|-----------
B|---0h1--0h1---|---0-----------|----0--------0-|-----------
G|--2---2-------|---------------|---0--2-0-0h2--|---2-------
D|--------------|--0------------|---------------|--2--------
A|-0------------|---------------|---------------|-0---------
E|--------------|-3----------2--|-0-------------|-----------

E|--------------------|-0---------------|-------------| P A
B|-----0-----1-----3--|-------3-1---3---|---1--0------| A F
G|---0-----2-----0----|-----0-----------|-------------| U T 
D|--------------------|-----------------|-2-----------| S E
A|-------0-----2------|-3-------0-------|-------------| E R
E|-3------------------|-----------------|-------------|

This part is pretty fast using a couple fingers **
E|--------------------|----------------|----------------|
B|--0h1p0---0---1---0-|----------------|0---------0-----|
G|*-------2-----2---0-|----0-----0-----|--2-0-2-------2-|
D|*-------------------|--0-----0-----0-|----------------|
A|--0---------0---0---|----------------|----------------|
E|--------------------|3-----2-----0---|0-------0---0---|

E|----------------------------------  Repeat that 4 times
B|----------------------------------
G|---2---2-----*--------------------
D|--2---2---2--*--------------------
A|-0---0---0------------------------
E|----------------------------------

There you go money, if any of you other bolds want more there are two more tabs for 
this song, they arent very correct but you'll look like you kno what your doin. ONE    

Added On December 4th, 2013

SHARE

Comments

blog comments powered by Disqus

VERSIONS

ADVERTISEMENT