Eric Clapton Tabs

Crossroads Slow Live

1 versions

TAB

            CROSSROADS

As performed live by Eric Clapton (www.youtube.com/watch?v=63bG2pFvfKQ)

This is only the tab with the rough idea, you'll need to 
listen to the song to get the timing and speed, etc.

This is only the TAB for the Rhythm G, not the solo guitar.

All sections follow on from each other to the beat. Notes in brackets are for drums/other instruments.

b=bend

Intro 
E |----12-12-12-12-12-12----------------------|-------------------------------|
B |----13-13-13-13-13-13----------------------|-------------------------------|
G |-------------------------------------------|------2-2--0--2----0-2-0-------|
D |--------------------------7-7-5-5-4-4-5-5--|------2-2--0--2----------------|
A |--------------------------7-7-5-5-4-4-5-5--|--------------------------3b---|
E |----------------------4b-------------------|-4b----------------------------|

E |-------------------------------|
B |-------------------------------|
G |------2-2--0--2----0-2-0-------|
D |------2-2--0--2----------------|
A |--------------------------3b---|
E |-------------------------------| x 7     A

Drums enter with alternate bass and snare 

E |-------------------------------|
B |-------------------------------|
G |------2-2--0--2----0-2-0-------|
D |------2-2--0--2----------------|
A |--------------------------3b---|
E |-------------------------------| x 4     A 

(Organ start, drums go bass & snare then bass, then repeat)

E |-------------------------------|
B |-------------------------------|
G |------2-2--0--2----0-2-0-------|
D |------2-2--0--2----------------|
A |--------------------------3b---|
E |-------------------------------| x 3     A

Verse 1

E |-------------------------------|
B |-------------------------------|
G |------2-2--0--2----0-2-0-------|
D |------2-2--0--2----------------|
A |--------------------------3b---|
E |-------------------------------| x 1     A 

E |-------------------------------|
B |-------------------------------|
G |------7-7--5--7----7-5-7-------|
D |------7-7--5--7----------------|
A |-------------------------------|
E |-------------------------------| x 1     D

E |-------------------------------|
B |-------------------------------|
G |------2-2--0--2----0-2-0-------|
D |------2-2--0--2----------------|
A |--------------------------3b---|
E |-------------------------------| x 2     A

E |-------------------------------|
B |-------------------------------|
G |------7-7--5--7----7-5-7-------|
D |------7-7--5--7----------------|
A |-------------------------------|
E |-------------------------------| x 2     D

E |-------------------------------|
B |-------------------------------|
G |------2-2--0--2----0-2-0-------|
D |------2-2--0--2----------------|
A |--------------------------3b---|
E |-------------------------------| x 2     A

E |-------------------------------|
B |-------------------------------|
G |------9-9--7--9----7-9-7-------|
D |------9-9--7--9----------------|
A |-------------------------------|
E |-------------------------------| x 1     E

E |-------------------------------|
B |-------------------------------|
G |------7-7--5--7----7-5-7-------|
D |------7-7--5--7----------------|
A |-------------------------------|
E |-------------------------------| x 1     D 

Bridge 1
 
E |-------------------------------|
B |-------------------------------|
G |------2-2--0--2----0-2-0-------|
D |------2-2--0--2----------------|
A |--------------------------3b---|
E |-------------------------------| x 2     A  (During the 2nd, drums roll into a full beat)

Verse 2

E |-------------------------------|
B |-------------------------------|
G |------2-2--0--2----0-2-0-------|
D |------2-2--0--2----------------|
A |--------------------------3b---|
E |-------------------------------| x 1     A 

E |-------------------------------|
B |-------------------------------|
G |------7-7--5--7----7-5-7-------|
D |------7-7--5--7----------------|
A |-------------------------------|
E |-------------------------------| x 1     D

E |-------------------------------|
B |-------------------------------|
G |------2-2--0--2----0-2-0-------|
D |------2-2--0--2----------------|
A |--------------------------3b---|
E |-------------------------------| x 2     A

E |-------------------------------|
B |-------------------------------|
G |------7-7--5--7----7-5-7-------|
D |------7-7--5--7----------------|
A |-------------------------------|
E |-------------------------------| x 2     D

E |-------------------------------|
B |-------------------------------|
G |------2-2--0--2----0-2-0-------|
D |------2-2--0--2----------------|
A |--------------------------3b---|
E |-------------------------------| x 2     A

E |-------------------------------|
B |-------------------------------|
G |------9-9--7--9----7-9-7-------|
D |------9-9--7--9----------------|
A |-------------------------------|
E |-------------------------------| x 1     E

E |-------------------------------|
B |-------------------------------|
G |------7-7--5--7----7-5-7-------|
D |------7-7--5--7----------------|
A |-------------------------------|
E |-------------------------------| x 1     D 

Bridge 2
 
E |-------------------------------|
B |-------------------------------|
G |------2-2--0--2----0-2-0-------|
D |------2-2--0--2----------------|
A |--------------------------3b---|
E |-------------------------------| x 2     A 

Solo 1

E |-------------------------------|
B |-------------------------------|
G |------2-2--0--2----0-2-0-------|
D |------2-2--0--2----------------|
A |--------------------------3b---|
E |-------------------------------| x 4     A

E |-------------------------------|
B |-------------------------------|
G |------7-7--5--7----7-5-7-------|
D |------7-7--5--7----------------|
A |-------------------------------|
E |-------------------------------| x 4     D

E |-------------------------------|
B |-------------------------------|
G |------2-2--0--2----0-2-0-------|
D |------2-2--0--2----------------|
A |--------------------------3b---|
E |-------------------------------| x 2     A

E |-------------------------------|
B |-------------------------------|
G |------9-9--7--9----7-9-7-------|
D |------9-9--7--9----------------|
A |-------------------------------|
E |-------------------------------| x 1     E

E |-------------------------------|
B |-------------------------------|
G |------7-7--5--7----7-5-7-------|
D |------7-7--5--7----------------|
A |-------------------------------|
E |-------------------------------| x 1     D

Bridge 3
 
E |-------------------------------|
B |-------------------------------|
G |------2-2--0--2----0-2-0-------|
D |------2-2--0--2----------------|
A |--------------------------3b---|
E |-------------------------------| x 2     A 

Verse 3

E |-------------------------------|
B |-------------------------------|
G |------2-2--0--2----0-2-0-------|
D |------2-2--0--2----------------|
A |--------------------------3b---|
E |-------------------------------| x 1     A 

E |-------------------------------|
B |-------------------------------|
G |------7-7--5--7----7-5-7-------|
D |------7-7--5--7----------------|
A |-------------------------------|
E |-------------------------------| x 1     D

E |-------------------------------|
B |-------------------------------|
G |------2-2--0--2----0-2-0-------|
D |------2-2--0--2----------------|
A |--------------------------3b---|
E |-------------------------------| x 2     A

E |-------------------------------|
B |-------------------------------|
G |------7-7--5--7----7-5-7-------|
D |------7-7--5--7----------------|
A |-------------------------------|
E |-------------------------------| x 2     D

E |-------------------------------|
B |-------------------------------|
G |------2-2--0--2----0-2-0-------|
D |------2-2--0--2----------------|
A |--------------------------3b---|
E |-------------------------------| x 2     A

E |-------------------------------|
B |-------------------------------|
G |------9-9--7--9----7-9-7-------|
D |------9-9--7--9----------------|
A |-------------------------------|
E |-------------------------------| x 1     E

E |-------------------------------|
B |-------------------------------|
G |------7-7--5--7----7-5-7-------|
D |------7-7--5--7----------------|
A |-------------------------------|
E |-------------------------------| x 1     D 

Bridge 4
 
E |-------------------------------|
B |-------------------------------|
G |------2-2--0--2----0-2-0-------|
D |------2-2--0--2----------------|
A |--------------------------3b---|
E |-------------------------------| x 2     A 

Verse 4

E |-------------------------------|
B |-------------------------------|
G |------2-2--0--2----0-2-0-------|
D |------2-2--0--2----------------|
A |--------------------------3b---|
E |-------------------------------| x 1     A 

E |-------------------------------|
B |-------------------------------|
G |------7-7--5--7----7-5-7-------|
D |------7-7--5--7----------------|
A |-------------------------------|
E |-------------------------------| x 1     D

E |-------------------------------|
B |-------------------------------|
G |------2-2--0--2----0-2-0-------|
D |------2-2--0--2----------------|
A |--------------------------3b---|
E |-------------------------------| x 2     A

E |-------------------------------|
B |-------------------------------|
G |------7-7--5--7----7-5-7-------|
D |------7-7--5--7----------------|
A |-------------------------------|
E |-------------------------------| x 2     D

E |-------------------------------|
B |-------------------------------|
G |------2-2--0--2----0-2-0-------|
D |------2-2--0--2----------------|
A |--------------------------3b---|
E |-------------------------------| x 2     A

E |-------------------------------|
B |-------------------------------|
G |------9-9--7--9----7-9-7-------|
D |------9-9--7--9----------------|
A |-------------------------------|
E |-------------------------------| x 1     E

E |-------------------------------|
B |-------------------------------|
G |------7-7--5--7----7-5-7-------|
D |------7-7--5--7----------------|
A |-------------------------------|
E |-------------------------------| x 1     D 

Bridge 5

E |-------------------------------|
B |-------------------------------|
G |------2-2--0--2----0-2-0-------|
D |------2-2--0--2----------------|
A |--------------------------3b---|
E |-------------------------------| x 4     A 

Solo 2/Outro

E |-------------------------------|
B |-------------------------------|
G |------2-2--0--2----0-2-0-------|
D |------2-2--0--2----------------|
A |--------------------------3b---|
E |-------------------------------| x 4     A 

E |-------------------------------|
B |-------------------------------|
G |------7-7--5--7----7-5-7-------|
D |------7-7--5--7----------------|
A |-------------------------------|
E |-------------------------------| x 4     D

E |-------------------------------|
B |-------------------------------|
G |------2-2--0--2----0-2-0-------|
D |------2-2--0--2----------------|
A |--------------------------3b---|
E |-------------------------------| x 2     A

E |-------------------------------|
B |-------------------------------|
G |------9-9--7--9----7-9-7-------|
D |------9-9--7--9----------------|
A |-------------------------------|
E |-------------------------------| x 1     E

E |-------------------------------|
B |-------------------------------|
G |------7-7--5--7----7-5-7-------|
D |------7-7--5--7----------------|
A |-------------------------------|
E |-------------------------------| x 1     D    

Added On September 16th, 2014

SHARE

Comments

blog comments powered by Disqus

ADVERTISEMENT