Eric Clapton Tabs

See What Love Can Do

1 versions

TAB

            SEE WHAT LOVE CAN DO    BEHIND THE SUN ALBUM

D DD DDD DSUS4 DSUS4 DSUS4 (progression.listen to song to get the feel)

When the world starts to fall apart. The deep within, within your lonely heart
(G)Do your best my friend try'n understand it's only (D-Dsus4)you that can pull
yourself through.

(A) When you tell your story (G)Make sure your story's right(A) every little word is 
 (D_Dsus4) See what love can do (see what love can do,see what love can do)See what love 
do (see what love can do, see what love can do.)

(D-Dsus4_
well the words are in the music, the music is the song the world would be so happy, if 
all just get along.(G)I wanna see a smile on every(D-Dsus4)
face.

 (A) So when we tell our story, make(G)sure that it's right
 (A) Every single word is(G) true. (D-Dsus4) See what love can do (see what love can do. 
what love can do) See what love can do (see what love can do, see what love can do)See 
love can do (see what love can do)


solo

--12b14----14r12p10---12b14---14---14r12--10--10-----10---------|
--------------------------------------------------12-----12-----|
----------------------------------------------------------------|
----------------------------------------------------------------|
----------------------------------------------------------------|
----------------------------------------------------------------|

---12b13r12----10--12--12--10--10---s15---13r12---10--10-----------------------|
---------------------------------------------------------12--10----------------|
--------------------------------------------------------------- 10p9--7--------|
-------------------------------------------------------------------------------|
-------------------------------------------------------------------------------|
-------------------------------------------------------------------------------|

-----------------------------------------------------------------------------------------|
-------7--8--10----10p8p7---8--7---7-8-7-------------------------------------------------|
-9b10---------------------------------------9---7----------------------------------------|
-----------------------------------------------------9--7---9---7------------------------|
-----------------------------------------------------------------------------------------|
-----------------------------------------------------------------------------------------|

(A) So when you tell your story honey (G) Make sure that it's right
(A) Finally prove the message (G) true  (D-Dsus4) See what love can do
   (see what love can do. see what can love can do) See what love can do
   (see what love can do)

(A) When we sing the story  (G) make sure your song is right.
(A) Finally prove the message (G) true. (D_Dsus4) See what love can do (see what love 
do. see what love can do    

Added On December 16th, 2013

SHARE

Comments

blog comments powered by Disqus

ADVERTISEMENT