Escape The Fate Tabs

Day I Left The Womb

3 versions

TAB

            Day I Left The Womb Tab by Escape The Fate


Artist: Escape The Fate
Song:The Day I Left The Womb
Album: Dying is Your Latest Fashon
Tabbed By: Willythekid
Contact: INSANEDISTORTION@YAHOO.COM

 //
// = LET RING

Tuning: DCGCFAD

Guitar 1 Intro
D-0-0-0000-0-0-0-0----------00-0-0-0-0-0-|
A-1-1-1111-1-1-1-1--55-5555-11-1-1-1-1-1-|
F-2-2-2222-2-2-2-2--55-5555-22-2-2-2-2-2-|
G-2-2-2222-2-2-2-2--55-5555-22-2-2-2-2-2-|x2
C-0-0-0000-0-0-0-0--33-3333-00-0-0-0-0-0-|
D----------------------------------------|

Guitar 2 Intro
D-12----12----10----10----7----7----8----8-----12----12----10----10----15-|
A----10----10----10----10---10---10---10---10-----10----10----10----10----|
F-------------------------------------------------------------------------|
G-------------------------------------------------------------------------|
C-------------------------------------------------------------------------|
D-------------------------------------------------------------------------|

D----15---12-10-12-|
A-10----10---------|
F------------------|
G------------------|x2
C------------------|
D------------------|

The verse is the same thing only without guitar 2

Right before the chorus
D-------|
A-------|
F-4444--|
G-5555--|
C-5555--|
D-3333--|
"...i can sing!" & "...you have kids to feed!"

Chorus Chords
D-0-0-0-0-0-0-0-0-0-0-------------------------------------------------------|
A-1-1-1-1-1-1-1-1-1-1-5-5-5-5-5-5-5-5-5-------------------------------------|
F-2-2-2-2-2-2-2-2-2-2-5-5-5-5-5-5-5-5-5-2-2-2-2-2-2-2-2-4-4-4-4-4-4-4-4-4---|
G-2-2-2-2-2-2-2-2-2-2-5-5-5-5-5-5-5-5-5-3-3-3-3-3-3-3-3-3-5-5-5-5-5-5-5-5---|x1
C-0-0-0-0-0-0-0-0-0-0-3-3-3-3-3-3-3-3-3-3-3-3-3-3-3-3-3-3-5-5-5-5-5-5-5-5---|
D---------------------------------------1-1-1-1-1-3-3-3-3-3-3-3-3-3-3-3-3---|

Guitar 2 (plays this only on the second chorus)
D-12----12----10----10----15----15----12-10--|
A----10----10----10----10----10----10--------|
F--------------------------------------------|
G--------------------------------------------|x4
C--------------------------------------------|
D--------------------------------------------|

Guitar 1 Bridge
D-0-----0----0----0----0-0-0-0--|
A-1-----1----1----1----1-1-1-1--|
F-2-//--2-//-2-//-2-//-2-2-2-2--|
G-2//---2//--2//--2//--2-2-2-2--|x1
C------------0----0----0-0-0-0--|
D-------------------------------|

Guitar 2 Bridge
D-0-----0-----0-----0----------|
A---1-----1-----1--------1-----|
F-----2-----2-----2--------2---|
G------------------------------|x5
C------------------------------|
D------------------------------|

End On
D-0-----|
A-1-----|
F-2-//--
G-2//---
C-0-----|
D-------|

So it goes:

into
verse
intro
verse
chorus
bridge
verse
chorus
end on    

Added On December 4th, 2013

SHARE

Comments

blog comments powered by Disqus

VERSIONS

ADVERTISEMENT