Etta James Tabs

Damn Your Eyes

1 versions

TAB

            Intro

E||-------|-------|-------|-------|-------|-------||
B||--5----|-------|-------|-------|-------|-------||
G||--5----|--7----|--7----|--5----|--5----|-------||
D||--7----|--6----|--6----|--4----|--5----|-------||
A||--8----|--7----|--7----|--5----|--7----|-------||
E||-------|-------|-------|-------|--5----|-------||


E||-------|-------|-------|-------|-------|------------5----||
B||--5----|-------|-------|-------|-------|----------5------||
G||--5----|--7----|--7----|--5----|--5----|--------5--------||
D||--7----|--6----|--6----|--4----|--5----|------5----------||
A||--8----|--7----|--7----|--5----|--7----|----7------------||
E||-------|-------|-------|-------|--5----|--5--------------||

Song: 15 chords

E||-------|--5----|-------|-------|-------|-------|-------|-------|--5----|
B||--5----|--5----|--5----|--5----|--5----|-------|--5----|-------|--6----|
G||--5----|--5----|--5----|--5----|--5----|--7----|--5----|--7----|--5----|
D||--5----|--4----|--5----|--4----|--7----|--6----|--7----|--6----|--7----|
A||--7----|--5----|--7----|--5----|--8----|--7----|--8----|--7----|--5----|
E||--5----|-------|--5----|-------|-------|-------|-------|-------|-------|

     1       2       3       4       5       6       7       8       9

-------|-------|-------|-------|-------|-------|-------||
--8----|--5----|--5----|--5----|-------|--5----|-------||
--7----|--5----|--5----|--5----|--7----|--5----|-------||
--6----|--5----|--4----|--7----|--6----|--5----|-------||
--7----|--7----|--5----|--8----|--7----|--7----|-------||
-------|--5----|-------|-------|-------|--5----|-------||


 10       11     12      13       14      15


 1. i can do what i want i'm in complete control
 2. that's what i tell myself
 3. i've got a mind of my own i'll be alright alone
 4. don't need anybody else
 5. i gave myself a good
 6. talking to
 7. no more being a
 8. fool for you
 9. now that i see you and all i remember
10. is how you make me want to surrender (play with a slightly touch on B-string)
11. damn your eyes
12. for taking my breath away
13. for making me wanna say
14.
15. damn your eyes    

Added On December 16th, 2013

SHARE

Comments

blog comments powered by Disqus

ADVERTISEMENT