Europe Tabs

The King Will Return

1 versions

TAB

            "The King Will Return" by Europe
                            "Europe album"

Tabulated by: Renan Vickysider (lucacarrico@hotmail.com) 
brazilian guitar Europe cover


Verse 1
          Am                F
They were attacked by surprise

         G              C
in the middle of the night

       Em            F
They didn´t stand a single chance

  G                F 
A single chance to fight

Am        F           G                   C
After the battle they gathered around the king

             Em              F              G
and they had never seen that man so sad

                   Em               F
"I´m riding out to get those men

                   G GGG repeat in an increasing order 
who hurt my people bad, so bad"

Chorus

Am                   F
The king will return

     C                  G 
with gold in his hand

Am                   F
The castle will burn

       C           G
in the enemy land

    G                F
And he will save our people

Verse 2 

    Am              F
When two springs had passed 

  G              C    
a messanger came down the track

   Em               F 
He said that he had heard great news

     G              F
"The king is coming back"

Am     F
Oh the time he was gone
     G               C
They suffered bad in misery

Em          F              G
They didn´t know the way

             F
Everyone was shouting

G                F       G
Save our kingdom now

Chorus

Am                   F
The king will return

     C                  G 
with gold in his hand

Am                   F
The castle will burn

       C           G
in the enemy land


    G                F
And he will save our people

Solo...I am working on it now...God know how long it will take.

Bridge

Repeat Riff 1 and 2 All The Way Until Verse 3

They suffered bad in pain

The time he was away

But maybe now they could survive

Now they could survive

Verse 3

          Am                F
When the king came down the hill

       G              C
To his people and his land

           Em              F
There were many tears that touched the ground

         G             F 
And made marks in the sand

Am        F           G             C
Yes now they could start all over again
          
    Em              F              G
And live in peace throughout time
             
            Em         F
Everyone was shouting
                   
                    G GGG repeat in an increasing order
when the king came down the hill

Chorus

Am                   F     C                G
The king is returning with gold in his hand

Am                   F
The castle will burn

       C           G
in the enemy land

Riff 1
E||--0--------0--------||
B||--0--------0--------||
G||--7--------5--------||
D||--9--------7--------||
A||--0--------0--------||
E||--0--------0--------||

Riff 2 

E||--------------0-----------||
B||-----------0-----0--------||
G||--------5-----------5-----||
D||-----7-----------------7--||
A||--0-----------------------||
E||--------------------------||


Riff 3 Repeat This Over Chorus

E||---------------------------------||
B||-----------0--1--0-----3b--1--0--||
G||--------2-----------2------------||
D||-----2---------------------------||
A||--0------------------------------||
E||---------------------------------||


E||---------------------------|--------||
B||-----------0--1--0---------|--------||
G||--------2-----------2------|--------||
D||-----2-----------------3BV-|--2-----||
A||--0------------------------|-----3--||
E||---------------------------|--------||    

Added On December 16th, 2013

SHARE

Comments

blog comments powered by Disqus

ADVERTISEMENT