Everclear Tabs

Heartspark Dollarsign

1 versions

TAB

            Heartspark Dollar Sign Tab by Everclear


#----------------------------------PLEASE NOTE---------------------------------#
#This file is the author's own work and represents their interpretation of the #
#song. You may only use this file for private study, scholarship, or research. #
#------------------------------------------------------------------------------##
#

#----------------------------------PLEASE NOTE---------------------------------#
#This file is the author's own work and represents their interpretation of the #
#song. You may only use this file for private study, scholarship, or research. #
#------------------------------------------------------------------------------#

Date: Sun, 29 Dec 1996 15:09:03 -0700
From: Joe Kersting 
Subject: TAB:'Heartspark Dollar Sign' by 'Everclear'

Song title: Heartspark Dollarsign
Artist:     EVERCLEAR
CD title:   Sparkle and Fade


Heartspark Dollarsign--Everclear

 Intro:
|------------------------------------2--|-------------------------------2-------|
|---------5-----------------3--------3--|---------5-----------------3------3----|
|-------------0-------------0--------0--|-------------0-------------0---------0-|
|------0--------------------0-----------|------0--------------------0-----------|
|---------------------------------------|---------------------------------------|
|--5-----------------3------------------|--5-----------------3------------------|

|---------------------------------------|
|---------5-----------------3-----------|
|-------------0-------------0-----------|
|------0--------------------0-----------|
|---------------------------------------|
|--5-----------------3------------------|


Play this right after the intro:

 G G G G  D D D D  C C C C  D D D D  G G G G  D D D D  C C C C  D D D D

[Verse 1]
G G G G       D D D D         C C C C      D D D D
    Time   stops     when the whispers   blare

G G G G       D D D D         C C C C      D D D D
The voices  drop hard but the eyes still  stare

G G G G       D D D D         C C C C      D D D D
The world resolves  into a  death's head  grin

 A  A  A  A  A  A  A  A  C  C  C  C  C  C
because I walk with pride with a black girlfriend.

G G G G  D D D D  C C C C  D D D D

Lead guitar plays this when Art says "into a death's head..."
e|----------------8--7--5--5-------------|
B|----------5--5--5--5--5--5-------------|
G|----------5--5-------------------------|
D|---------------------------------------|
A|---------------------------------------|
E|---------------------------------------|


[Verse 2]
G G G G       D D D D         C C C C      D D D D
   My mom   said not to      bring her   around

G G G G       D D D D         C C C C      D D D D
Cause she's black My family  would put her down

G G G G       D D D D         C C C C      D D D D
I'll break  the white trash   ties that     bind

A  A  A  A  A  A  A  A   C  C  C  C  C  C  C  C
Trade  a  love  so  pure  for  a  hate  so  blind

G G G G  D D D D  C C C C  D D D D

[Chorus 1]
A A  E E  A A  E E  C C C C    G G G G     D D D D     A A A A
She said, She said, forget the fact that I don't look like you

A A  E E  A A  E E  C  C  C  C  C  C  C  C  D  D  D  D  D  D  D  D
She said, She said, your possed with a power bigger than the pain

 Solo:
|---------------------------------------|---------12--15------------------------|
|--15-b17r15---15--12---15--12----------|---12-15--------12---15--------15------|
|---------------------------------------|--------------------------12--------11-|
|---------------------------------------|---------------------------------------|
|---------------------------------------|---------------------------------------|
|---------------------------------------|---------------------------------------|

|---------12--15------------------------|---------------------------------------|
|---12-15--------12---15--------15------|---12---12--12--12-12---11-11--11--11--|
|--------------------------12--------11-|---12---12--12--12-12---12-12--12--12--|
|---------------------------------------|---------------------------------------|
|---------------------------------------|---------------------------------------|
|---------------------------------------|---------------------------------------|

|---------------------------------------|---------------------------------------|
|---12---12--12--12-12---11-11--11--11--|---------------------------------------|
|---12---12--12--12-12---12-12--12--12--|---------------------------------------|
|---------------------------------------|---------------------------------------|
|---------------------------------------|---------------------------------------|
|---------------------------------------|---------------------------------------|

[Verse 3]
G G G G       D D D D         C C C C      D D D D
    Time   stops     when we    lie so   close

G G G G       D D D D         C C C C      D D D D
In my    room where we   share what no one  knows

G G G G       D D D D         C C C C      D D D D
>From the day that we start to  the day that we end

A    A    A   A    C    C    C    C    A    A    A    A     C    C    C    C
I know I know I know now we will never find a place where we can just fit in

G G G G    D D D D   C C C C   D D D D

G G G G    D D D D   C C C C   D D D D
           Me and my black girlfriend

[Chorus 2]
A A  E E  A A  E E  C C C C    G G G G     D D D D     A A A A
She said, She said,  fend for  your self   you'er alone

A A  E E  A A  E E  C  C  C  C  C  C  C  C  D  D  D  D  D  D  D  D
She said, She said, your possed with a power bigger than the pain


[Verse 4]
G G G G       D D D D         C C C C      D D D D
                  A power bigger than the pain

G G G G       D D D D         C C C C      D D D D
                           A power bigger than the pain
G G G G       D D D D         C C C C      D D D D
                            Heartspark dollar sign
G G G G       D D D D         C C C C      D D D D  G
                            Heartspark dollar sign

Well there it is, tab never worked for me, but here is the
legend any way just for reference.

Tab'n Legend:
-------
x = mute
b = bend
r = release
h = hammer on
p = pull off
~ = vibrato
/ = slide up
\ = slide down
^^ = tremoloHeartspark Dollarsign Tab by Everclear


Heartspark Dollarsign
By Everclear
Off the CD "Sparkle and Fade"
Tabbed by Chris Mickols (cmickols@hotmail.com)


Guitar:
Intro:
e|-----------------2-------------------2---------------------|
B|-----5------3----3-------5------3------3---------5-----3---|
G|-------0----0----0---------0----0--------0---------0---0---|
D|---0--------0----------0--------0--------------0-------0---|
A|-----------------------------------------------------------|
E|-5-------3-----------5-------3---------------5-------3-----|
 

Riff 1:
e|-------------3--3--3--3--------------0--0--0--0--------------
B|-------------0--0--0--0--------------1--1--1--1--------------
G|-2--4--2--0--0--0--0--0--2--4--2--0--0--0--0--0--2--4--2--0--
D|-0--0--0--0--0--0--0--0--0--0--0--0--2--2--2--2--0--0--0--0--
A|-------------2--2--2--2--------------3--3--3--3--------------
E|-------------3--3--3--3--------------0--0--0--0--------------
 
e|-3--3--3--3--------------0--0--0--0--------------|
B|-0--0--0--0--------------1--1--1--1--------------|
G|-0--0--0--0--2--4--2--0--0--0--0--0--2--4--2--0--|
D|-0--0--0--0--0--0--0--0--2--2--2--2--0--0--0--0--|
A|-2--2--2--2--------------3--3--3--3--------------|
E|-3--3--3--3--------------0--0--0--0--------------|
 


Riff 2:
e|-0--------0-------3--3--3--3--------------0--0--0--0--------------|
B|-3--------1-------0--0--0--0--------------1--1--1--1--------------|
G|-3--------0-------0--0--0--0--2--4--2--0--0--0--0--0--2--4--2--0--|
D|-3--------2-------0--0--0--0--0--0--0--0--2--2--2--2--0--0--0--0--|
A|-0--------3-------2--2--2--2--------------3--3--3--3--------------|
E|----------0-------3--3--3--3--------------0--0--0--0--------------| 
 

Riff 3:
e|-----------------------------------------------------|
B|-----------------------------------------------------|
G|-2--4--2--0----------2--4--2--0----------2--4--2--0--|
D|-0--0--0--0----------0--0--0--0----------0--0--0--0--|
A|-----------------------------------------------------|
E|-----------------------------------------------------|


Riff 4:
e|-0--0---0--0---0--0---0--0---3--3--3--3---0--0--0--0--
B|-3--3---0--0---3--3---0--0---0--0--0--0---1--1--1--1--
G|-3--3---1--1---3--3---1--1---0--0--0--0---0--0--0--0--
D|-3--3---2--2---3--3---2--2---0--0--0--0---2--2--2--2--
A|-0--0---2--2---0--0---2--2---2--2--2--2---3--3--3--3--
E|--------0--0----------0--0---3--3--3--3---0--0--0--0--
 
-3--3--3--3---0--0--0--0--|
-0--0--0--0---1--1--1--1--|
-0--0--0--0---0--0--0--0--|
-0--0--0--0---2--2--2--2--|
-2--2--2--2---3--3--3--3--|
-3--3--3--3---0--0--0--0--|
 
Solo:
e|---------------------------------------------12-15--------
B|-15-17)-15--12-15-12-15-12-\-\-\-/-/-/-12-15-------12-15--
G|----------------------------------------------------------
D|----------------------------------------------------------
A|----------------------------------------------------------
E|----------------------------------------------------------
 
-------------------12-15---------------------
----12-15----12-15-------12-15----12-15------
-12-------12-------------------12-------12---
---------------------------------------------
---------------------------------------------
---------------------------------------------
 
------------------------------------------------------------------|
-12-12-12-12-11-11-11-11-12-12-12-12-11-11-11-11--------------12--|
-12-12-12-12-12-12-12-12-12-12-12-12-12-12-12-12--14-16-14-12-12--|
------------------------------------------------------------------|
------------------------------------------------------------------|
------------------------------------------------------------------|
 

Bass:
Riff 1:
G|-------------------------------------|
D|-------------------------------------|
A|----------5-5-5-5--3-3-3-3--5-5-5-5--|
E|-3-3-3-3-----------------------------|


Riff 2:
G|-------------------------------------------------------|
D|-------------------------------------------------------|
A|----------3-3-3-3-----------5-5-5-5--3-3-3-3--5-5-5-5--|
E|-5-5-5-5----------3-3-3-3------------------------------|
 


Riff 3:
e|------------------------------------------------------|
B|------------------------------------------------------|
G|------------------------------------------------------|
D|------------------------------------------------------|
A|------------------------------3-3-3-3---------3-3-3-3-|
E|-5-5---0-0--5-5--0-0--3-3-3-3---------3-3-3-3---------|
 


 


Guitar Intro, Riff 1	Intro
Bass   None, Riff 1

Guitar Let ring		Time stops when the whispers blare
Bass   Riff 1		The voices drop hard, but the eyes still stare
			The world resolvs into a death's head grin

Guitar Riff 2		Because I walk with pride with a black girlfriend
Bass   Riff 2
		
Guitar Riff 3		My mom said not to brign her around
Bass   Riff 1		Cause she's black my family would put her down
			I'll break the  white-trash ties that bind

Guitar Riff 2		Trade a love so pure for a hate so blind
Bass   Riff 2

Guitar Riff 4		She said, she said
Bass   Riff 3		Forget the fact  that I don't look like you
			She said, she said
			You're possessed with a power bigger than the pain

Guitar Solo		Solo
Bass   Riff 1

Guitar Riff 3		Time stops when we lie so close
Bass   Riff 1		In my room where we share what no one knows
			From the day that we start
			Untill the day that we end

Gutar Riff 2		I know I know I know now
Bass  Riff 2		We will never find a place
			Where we could just fit in

Guitar Riff 1		Me and my black girlfriend
Bass   Riff 1

Guitar Riff 4		She said, she said
Bass   Riff 3		Fend for yourself, your alone
			She said, she said
			Your posessed with a power bigger than the pain

Guitar Riff 1		A power bigger than the pain
Bass   Riff 1		A power bigger than the pain
			A power bigger than the pain
			Heartspark Dollarsign
			Heartspark DollarsignIf you think I am missing parts to this song e-mail them to me:
cmickols@hotmail.com    

Added On December 4th, 2013

SHARE

Comments

blog comments powered by Disqus

ADVERTISEMENT