Every Time I Die Tabs

Pelican Of The Desert

1 versions

TAB

            --------------------------------------------
  Pelican Of The Desert - Every Time I Die
--------------------------------------------
Tabbed by: millarso (Jake Miller)
E-mail: millarso2.0@gmail.com

Tuning: Drop D

Guitar 1: Left Stereo
Guitar 2: Right Stereo

SECTION 1
Both Guitars (at very beginning only Guitar 1 starts)
E|------------------------------------------------------------------|
B|------------------------------------------------------------------|
G|------------------------------------------------------------------|
D|-7-8-9-3-6--------------------------7-8-9-3-6---------------2-0---|
A|-7-8-9-3-6--------------------------7-8-9-3-6---------------2-0---|
D|-7-8-9-3-6-0000-6-3-6-00-3-2-0-0000-7-8-9-3-6-0000-6-3-6-00-2-0---|
             ....       ..       ....           ....       ..

E|-------------------------------------------------------------------|
B|-------------------------------------------------------------------|
G|-------------------------------------------------------------------|
D|-7-8-9-3-6--------------------------9--8--3--6--3--6--3--6--2--0---|
A|-7-8-9-3-6--------------------------9--8--3--6--3--6--3--6--2--0---|
D|-7-8-9-3-6-0000-6-3-6-00-3-2-0-0000-9--8--3--6--3--6--3--6--2--0---|
             ....       ..       ....

REPEAT SECTION 1

TRANSITION 1
E|------------------------------|
B|------------------------------|
G|------------------------------|
D|-9--8--3--6--3--6--3--6--2--0-|
A|-9--8--3--6--3--6--3--6--2--0-|
D|-9--8--3--6--3--6--3--6--2--0-|

SECTION 2
Both Guitars
E|---------------------------------------------------------|
B|----------------------6666-9----------9--9---------------|
G|-------------------------------------10-10~--------------|
D|-6--9--6----6666-9999----------9--9----------9-8-3-6-3-6-|x2
A|-6--9--6----------------------11-11~---------9-8-3-6-3-6-|
D|-6--9--6-------------------------------------9-8-3-6-3-6-|

SECTION 3
Guitar 1
E|---------------------------------------------------|
B|--------------6-9----------------------------------|
G|--------------------------------------8-10\--8-9---|
D|-6-9-6-6-9/10---------------6-9-6-6-9--------8-9---|
A|-6-9-6----------------------6-9-6------------6-7---|
D|-6-9-6-------------99999999-6-9-6------------------|
||                   ........
Guitar 2
E|---------------------------------------------------|
B|---------------------------------------------------|
G|---------------------------------------------8-9---|
D|-6-9-6----------------------6-9-6------------8-9---|
A|-6-9-6----------------------6-9-6------------6-7---|
D|-6-9-6-------------99999999-6-9-6------------------|
                     ........
Guitar 1
E|------------------------------------------------|
B|--------------6-9-------------------------------|
G|------------------------------------------------|
D|-6-9-6-6-9/10---------------6-9-6-9--3-6--2-0---|
A|-6-9-6----------------------6-9-6-9--3-6--2-0---|
D|-6-9-6-------------99999999-6-9-6-9--3-6--2-0---|
||                   ........
Guitar 2
E|------------------------------------------------|
B|------------------------------------------------|
G|------------------------------------------------|
D|-6-9-6----------------------6-9-6-9--3-6--2-0---|
A|-6-9-6----------------------6-9-6-9--3-6--2-0---|
D|-6-9-6-------------99999999-6-9-6-9--3-6--2-0---|
                     ........

SECTION 4
Guitar 1
E|----------------------------------------------------|
B|--------------6-9-----------------------------------|
G|-----------------------------------------10\--8-9---|
D|-6-9-6-6-9/10---------------6-9-6-6-9/10------8-9---|
A|-6-9-6----------------------6-9-6-------------6-7---|
D|-6-9-6-------------99999999-6-9-6-------------------|
||                   ........
Guitar 2
E|------------------------------------------------------|
B|---------------9-12-----------------------------------|
G|------------10--------------------------10-13\--8-9---|
D|-6-9-6-9-12------------------6-9-6-9-12---------8-9---|
A|-6-9-6-----------------------6-9-6--------------6-7---|
D|-6-9-6--------------99999999-6-9-6--------------------|
                      ........
Guitar 1
E|-------------------------------------------------|
B|--------------6-9--------------------------------|
G|-------------------------------------------------|
D|-6-9-6-6-9/10---------------6-9-6-9--3-6-3-1-0---|
A|-6-9-6----------------------6-9-6-9--3-6-3-1-0---|
D|-6-9-6-------------99999999-6-9-6-9--3-6-3-1-0---|
||                   ........
Guitar 2
E|--------------------------------------------------|
B|---------------9-12-------------------------------|
G|------------10------------------------------------|
D|-6-9-6-9-12------------------6-9-6-9--3-6-3-1-0---|
A|-6-9-6-----------------------6-9-6-9--3-6-3-1-0---|
D|-6-9-6--------------99999999-6-9-6-9--3-6-3-1-0---|
                      ........
SECTION 5
Both Guitars
E|------------------------------------------------------------------------------------|
B|--------------------------------------9---------------------------------------------|
G|-------------------10-10-------------10b--------------10--------10-10-----------13--|
D|-9-5-6-------9--9--12-12---9--9-----------9-8-3-6-3-6-10---6-6--10-10--6-6------13--|x2
A|-9-5-6------11-11---------11-11--0-0------9-8-3-6-3-6--8---6-6---8--8--6-6--0-0-11--|
D|-9-5-6---------------------------0-0------9-8-3-6-3-6------6-6---------6-6--0-0-----|
                                   . .                                        . .

E|-----------------------------------------------------------------------------------------------|
B|-----------------------------------------------------------------------------------------------|
G|------10-10--13-13-13-------------------10-10-----------13--------10-10--13-13-13--------------|
D|-6-6--10-10--13-13-13--------------6-6--10-10--6-6------13---6-6--10-10--13-13-13--------------|
A|-6-6---8--8--11-11-11--------------6-6---8--8--6-6--0-0-11---6-6---8--8--11-11-11--------------|
D|-6-6-------------------12-99999999-6-6---------6-6--0-0------6-6-------------------12-99999999-|
                            ........                  . .                               ........
SECTION 6
Both Guitars
E|--------------------------------------------------|
B|--------------------------------------------------|
G|------7---------7/10----10----7--10-10------------|
D|-3--0-7--0-3--0-7/10--0-10--0-7--10-10------------|x2
A|-3--0-5--0-3--0-5/-8--0--8--0-5---8--8------------|
D|-3--0----0-3--0-------0-----0----------9-66666666-|
                                           ........

E|----------|  |--------------------------------------|
B|----------|  |--------------------------------------|
G|----------|  |--------------------------------------|
D|----------|x7|-7-8-9-3-6----------------------------|
A|----------|  |-7-8-9-3-6---------(Guitar-1)---------|
D|-66666666-|  |-7-8-9-3-6-(0000-6-3-6-00-3-2-0-0000)-|
   ........                 ....       ..       ....

SECTION 7
Both Guitars
E|------------------------------------------------------------------|
B|------------------------------------------------------------------|
G|------------------------------------------------------------------|
D|-7-8-9-----6-2-0-3---------------7-8-9-----6-2-0-3----------------|
A|-7-8-9-0-0-6-2-0-3-0-0-0-0-0-0-0-7-8-9-0-0-6-2-0-3-0-0-0----------|
D|-7-8-9-0-0-6-2-0-3-0-0-0-0-0-0-0-7-8-9-0-0-6-2-0-3-0-0-0-00000000-|
         . .         . . . . . . .       . .         . . . ........

E|-----------------------------------------------------------------|
B|-----------------------------------------------------------------|
G|-----------------------------------------------------------------|
D|-7-8-9-----6-2-0-3---------------7-8-9-----6-2-0-3p0-------------|
A|-7-8-9-0-0-6-2-0-3-0-0-0-0-0-0-0-7-8-9-0-0-6-2-0-3p0-------------|
D|-7-8-9-0-0-6-2-0-3-0-0-0-0-0-0-0-7-8-9-0-0-6-2-0-3p0-000-000-000-|
         . .         . . . . . . .       . .           ... ... ...

REPEAT SECTION 7 to finish

There are a few spots I'm not 100% on, but this should get you where you
are headed. Cool song. You can feel that Kurt Ballou/Converge influence.
Please rate & comment.
Thanks,
millarso

************************************

| /   slide up
| \   slide down
| h   hammer-on
| p   pull-off
| ~   vibrato
| +   harmonic
| x   Mute note
| b   Bend
| pb  Pre-bend
| br  Bend release
| pbr Pre-bend release
| brb Bend release bend

************************************    

Added On June 23rd, 2014

SHARE

Comments

blog comments powered by Disqus

ADVERTISEMENT