Exies Tabs

Baptize Me

2 versions

TAB

            Baptize Me Tab by Exies


verse x8
e(-----------------------------)
b(-----------------------------)
g(-------6---------------------)
d(------8------6-----4-------1-)
a(----8------6-----4-----------)
E(--6------4-----2-----1-0-1---)

chorus             (x8)
e(------------)(--------------------)
b(------------)(--------------------)
g(------------)(--------------------)
d(--3/4-33-22-)(--8888-666-444-3333-)
a(--3/4-33-22-)(--8888-666-444-3333-)
E(--1/2-11-00-)(--6666-444-222-1111-)

solo       (x4)          (x2)
e(----------------)(-------------)(---------------------)
b(----------------)(-------------)(---------------------)
g(----------------)(--5-6-5-4-33-)(--5-56-68-3-let ring-)
d(----------------)(--5-6-5-4-33-)(--5-56-68-3----------)
a(--3h4-3h4-3/1-1-)(--3-4-3-2-11-)(--3-34-46-1----------)
E(----------------)(-------------)(---------------------)    

Added On December 4th, 2013

SHARE

Comments

blog comments powered by Disqus

VERSIONS

ADVERTISEMENT