Exies Tabs

Spectator At The Revolution

1 versions

TAB

            e(------------------------------)
b(------------------------------)
g(--3-3-33--------7-77-777-77-5-)
d(--3-3-33-5-5-55-7-77-777-77-5-)
a(--1-1-11-5-5-55-5-55-555-55-3-)
D(---------5-5-55---------------)

e(------------------------------)
b(------------------------------)
g(--3-3-33-3-3-33---------------)
d(--3-3-33-3-3-33-5-5-55-3-3-33-)
a(--1-1-11-1-1-11-5-5-55-3-3-33-)
D(----------------5-5-55-3-3-33-)

e(------------------------------)
b(------------------------------)
g(--3-3-33-3-3-33---------------)
d(--3-3-33-3-3-33-5-5-55-3-3-33-)
a(--1-1-11-1-1-11-5-5-55-3-3-33-)
D(----------------5-5-55-3-3-33-)

e(----------------------------------------)
b(----------------------------------------)
g(--3-3-3333-33-3-3-33--------3-3-3333-33-)
d(--3-3-3333-33-3-3-33-3-3-33-3-3-3333-33-)
a(--1-1-1111-11-1-1-11-3-3-33-1-1-1111-11-)
D(---------------------3-3-33-------------)

e(----------------------------------------)
b(----------------------------------------)
g(--3-3-3333-33-3-3-33--------3-3-3333-33-)
d(--3-3-3333-33-3-3-33-3-3-33-3-3-3333-33-)
a(--1-1-1111-11-1-1-11-3-3-33-1-1-1111-11-)
D(---------------------3-3-33-------------)

e(----------------)
b(----------------)
g(--3-3-33--------)
d(--3-3-33-3-3-33-)
a(--1-1-11-3-3-33-)
D(---------3-3-33-)

e(----------------------------------------)
b(----------------------------------------)
g(--3-3-3333-33-3-3-33--------3-3-3333-33-)
d(--3-3-3333-33-3-3-33-3-3-33-3-3-3333-33-)
a(--1-1-1111-11-1-1-11-3-3-33-1-1-1111-11-)
D(---------------------3-3-33-------------)

e(----------------)
b(----------------)
g(--3-3-33--------)
d(--3-3-33-3-3-33-)
a(--1-1-11-3-3-33-)
D(---------3-3-33-)

e(----------------)
b(----------------)
g(--3-3-33--------)
d(--3-3-33-5-5-55-)
a(--1-1-11-5-5-55-)
D(---------5-5-55-)

e(------------------------------)
b(------------------------------)
g(--3-3-33-2-2-22-3-3-33--------)
d(--3-3-33-2-2-22-3-3-33-3-3-33-)
a(--1-1-11-0-0-00-1-1-11-3-3-33-)
D(-----------------------3-3-33-)

e(------------------------------)
b(------------------------------)
g(--3-3-33-2-2-22-3-3-33--------)
d(--3-3-33-2-2-22-3-3-33-3-3-33-)
a(--1-1-11-0-0-00-1-1-11-3-3-33-)
D(-----------------------3-3-33-)

last chord
e(----)
b(----)
g(--3-)
d(--3-)
a(--1-)
D(----)    

Added On December 16th, 2013

SHARE

Comments

blog comments powered by Disqus

ADVERTISEMENT