Exit Ten Tabs

Absence Of Forgiveness

1 versions

TAB

            not sure about some of it but it sounds good right to me. hope you like

Tuning: Drop C
00:06
Riff 1 x4
-------------------------------------------------------------------|
-------------------------------------------------------------------|
-----------2255------------2255------------2255------------2255----|
---33223355----33--33223355----33--33223355----33--33223355----33--|  
-55--------------55--------------11--------------11----------------|
-------------------------------------------------------------------|

Riff 2 x4
Both guitars
-----------------|
-----------------|
-----------------|
-----------------|
--0--0---0-0-0-0-|
--0--0---0-0-0-0-|
  x  x   x x x x

Guitar 1
-----------------|
-----------------|
-----5-----------|
-2-3---3-2-3-2---|          
---------------3-|
-----------------|
"all that i belive they will say"
guitar 2
------------------|
------------------|
------------------|
-3333333355555555-|
-3333333355555555-|
-3333333355555555-|
 xxxxxxxxxxxxxxxx

Riff 3 x4

----------------|
----------------|
----------------|
----------------|
-0--0---0-0-0-0-|
-0--0---0-0-0-0-|
 x  x   x x x x
"but i've been sane.."

Riff 4 x2
--------------------------------------------------------------------------|
--------------------------------------------------------------------------|
--------------------------------------------------------------------------|
-8--10--0--0000000--8--10--0--0000000--8--7--5--5555555--3--2--0--0000000-|
-8--10--0--0000000--8--10--0--0000000--8--7--5--5555555--3--2--0--0000000-|
-8--10--0--0000000--8--10--0--0000000--8--7--5--5555555--3--2--0--0000000-|
           xxxxxxx            xxxxxxx
"we've no way...."

Riff 1 x2

Riff 2 x4

Riff 3 x12

Riff 4 x2

Riff 5
------------------------------------------------------------------|
------------------------------------------------------------------|
------------------------------------------------------------------|
------------------------------------------------------------------|
-5555555555555555555555555555555511111111111111111111111111111111-|
------------------------------------------------------------------|
 xxxxxxxxxxxxxxxxxxxxxxxxxxxxxxxxxxxxxxxxxxxxxxxxxxxxxxxxxxxxxxxx

Riff 6
------------|
------------|
------------|
-787--787-7-|
------------|
------------|

Riff 3 x12

Riff 4 x4

play Riff 3 once at the very end    

Added On December 16th, 2013

SHARE

Comments

blog comments powered by Disqus

ADVERTISEMENT