Exploited Tabs

Sid Vicious Was Innocent

1 versions

TAB

            The exploited - Sid Vicious was innocent

Mainriff (really simple) goes through the whole song
e|---------------------------------|
B|---------------------------------|
G|-5-5-5-5-8-8-8-8-7-7-7/8-7-7-7/8-|
D|-5-5-5-5-8-8-8-8-7-7-7/8-7-7-7/8-|
A|-3-3-3-3-6-6-6-6-5-5-5/6-5-5-5/6-|
E|---------------------------------|

Bass

Mainriff and verse
G|---------------------------------|
D|---------------------------------|
A|-3-3-3-3-6-6-6-6-5-5-5-6-5-5-5-6-|
E|---------------------------------|

G|---------------------------------|
D|---------------------------------|
A|-3-3-3-3-6-5-6-3-3-3-3-6-5-3-----|
E|---------------------------------|

Guitar Solo

Play every note with REALLY much vibrato
e|---------------------------------|
B|---------------------------------|
G|-5~--7~---5~--7~---5~--7~--------|
D|---------------------------------|
A|---------------------------------|
E|---------------------------------|

Outro
e|---------------------------------|
B|---------------------------------|
G|-5-5-5-5-5-5-5-5-7-7-7-7-7-7-7-7-|
D|-5-5-5-5-5-5-5-5-7-7-7-7-7-7-7-7-|
A|-3-3-3-3-3-3-3-3-5-5-5-5-5-5-5-5-|
E|---------------------------------|    

Added On December 16th, 2013

SHARE

Comments

blog comments powered by Disqus

ADVERTISEMENT