Exploited Tabs

Violent Society

1 versions

TAB

            ----------------------------------------------------------------------------
			     Violent Society - The Exploited
----------------------------------------------------------------------------
I'm pretty sure that I'm not the only person that wanted to learn this song, and I could 
find a tab for it. So, I decided one night to make my own. Here it is. Enjoi.

Tabbed by: Anthony Luciano
Email: Satanz_serenade@yahoo.com

Tuning: Drop D

Intro/Verse
e|-------------------------------------------------------------------------|
B|-------------------------------------------------------------------------|
G|-------------------------------------------------------------------------|
D|-7-9-9-12-9-9-7-9-3-2----------------------------------------------------|
A|-7-9-9-12-9-9-7-9-3-2----------------------------------------------------|
D|-7-9-9-12-9-9-7-9-3-2----------------------------------------------------|

Chorus
e|-------------------------------------------------------------------------|
B|-------------------------------------------------------------------------|
G|-------------------------------------------------------------------------|
D|-15-15-15-15-13-12--7-7-9--7-7-9-----------------------------------------|
A|-15-15-15-15-13-12--7-7-9--7-7-9-----------------------------------------|
D|-15-15-15-15-13-12--7-7-9--7-7-9-----------------------------------------|

Listen to the song for the exact rythym.

I'm working on getting the solo up for you guys.
Make sure to rate this and tell me what you think.
Thanks.    

Added On December 16th, 2013

SHARE

Comments

blog comments powered by Disqus

ADVERTISEMENT