Exploited Tabs

War

2 versions

TAB

            A quite easy song, but great, song. Enjoy!

Main Riff:

  [----PM-----]   
E--------------------|
B--------------------|
G---------------\9\--|
D-2-2--2-2--2-2-\9\--|
A-2-2--2-2--2-2-\7\--|
E-0-0--0-0--0-0------| 


Break (at "We don't need your war"):

E-------------------|
B-------------------|
G-------------------|
D-10---\9---\12-----|
A-10---\9---\12-----|
E--8---\7---\10-----| 

Or, if you prefer:

E-----------------|
B-----------------|
G-5---\4---\7-----|
D-5---\4---\7-----|
A-3---\2---\5-----|
E-----------------|    

Added On December 16th, 2013

SHARE

Comments

blog comments powered by Disqus

VERSIONS

ADVERTISEMENT