F-minus Tabs

Victim In Pain

1 versions

TAB

            Artist: F-Minus
Title: Victim In Pain
Album: Won't Bleed Me/Failed Society (2005)
Label: Alternative Tentacles/Blacknoise

Sort of an easy song to play; the verse chords are pretty fast.
If you have any suggestions or whatever, just leave a comment.


  Intro Chord
e|------------|
B|------------|
G|------------|
D|-9----------|
A|-9----------|
E|-7----------|

  Verse Chords
e|----------------|
B|----------------|
G|----------------|
D|-9--/16--12--7--| repeat
A|-9--/16--12--7--| 8 times
E|-7--/14--10--6--|

  Chorus Chords
e|------------------|------------------|
B|------------------|------------------|
G|------------------|------------------|
D|-9--9-9---7--7-7--|-2--2-2---9--9-9--| repeat
A|-9--9-9---7--7-7--|-2--2-2---9--9-9--| 2 times
E|-7--7-7---5--5-5--|-0--0-0---7--7-7--|

Remaining order:
.. Verse Chords 6 times
.. Chorus Chords 2 times
.. Verse Chords 2 times, play first chord + pick slide
.. Verse Chords 2 times, play first chord    

Added On December 16th, 2013

SHARE

Comments

blog comments powered by Disqus

ADVERTISEMENT