Fall Out Boy Tabs

Dont You Know Who I Think I Am

2 versions

TAB

            Dont You Know Who I Think I Am Tab by Fall Out Boy


Artist: Fall Out Boy
Song: Don't You Know Who I Think I Am?
Album: Infinity On High
Tabbed By: Alex Trimboli

~ = Vibrato
/ = Slide Up
\ = Slide up
\\ = Slide out Downwards
. = Palm Mute
x = Dead note (Mute)
p = Pull Off
h = Hammer On
^ = bend string

Standard Tuning (EADGBE)


Intro

Guitar 2
  . . . .  . . . .
E------------------|          |-------|
B------------------|    x2    |-------|
G------------------|          |-------|
D------------------|          |-xx-xx-|
A-1-1-2-4--6-6-2-4-|          |-xx-xx-|
E------------------|          |-xx-xx-| 
  . . . .  . . . .

E----------------------------|
B----------------------------|     x4 
G----------------------------|     
D-8-8-11-8-11--13-13-11-8-11-|
A-8-8-11-8-11--13-13-11-8-11-|
E-6-6-9--6-9---11-11-9--6-9--|


Guitar 1
E------------------------------------------|
B------------------------------------------|     x4 
G-10-10-10-10-10-10-10-11-10-10-10-10-10\\-|     
D-x--x--x--x--x--x--x--x--x--x--x--x--x----|
A-8--8--8--8--8--8--8--9--8--8--8--8--8\\--|
E------------------------------------------|


Verse 1

Guitar 1 
E--------------|         
B-----------44-|   x8   
G-x-x-6-x-x-66-|          
D--------------|          
A--------------|        
E--------------| 
  
Guitar 2
  . . . .  . . . .
E------------------|         
B------------------|   x4  
G------------------|          
D------------------|          
A-1-1-2-4--6-6-2-4-|        
E------------------|         
  . . . .  . . . .

Pre Chorus 1

Guitar 1 (Can Be Heard Very Softly)
E----------------|          |----------|       
B----------------|    x6    |----------|
G----------------|          |----------| 
D-11-12-12-15-15-|          |-15p12-13-|   
A----------------|          |----------| 
E----------------|          |----------| 
 
Guitar 2
E---------------------------------|-------------|
B---------------------------------|-------------|   
G---------------------------------|-6-x-xx-x-xx-|  
D-8----8----6----4----8----6----4-|-6-x-xx-x-xx-|
A-8----8----6----4----8----6----4-|-4-x-xx-x-xx-|
E-6----6----4----2----6----4----2-|-------------|


Chorus

Guitar 1
E-------------------------------------------------|         
B-------------------------------------------------|      
G-10-10-10-10-10-10-10-10-17-17-17-17-18-18-18-18-|          
D-x--x--x--x--x--x--x--x--x--x--x--x--x--x--x--x--|          
A-8--8--8--8--8--8--8--8--15-15-15-15-16-16-16-16-|        
E-------------------------------------------------| 

E-------------------------------------------------|         
B-------------------------------------------------|      
G-10-10-10-10-11-11-11-11-13-13-13-13-13-13-13-13-|          
D-x--x--x--x--x--x--x--x--x--x--x--x--x--x--x--x--|          
A-8--8--8--8--9--9--9--9--11-11-11-11-11-11-11-11-|        
E-------------------------------------------------| 

E-------------------------------------------------|         
B-------------------------------------------------|      
G-10-10-10-10-11-11-11-11-17-17-17-17-18-18-18-18-|          
D-x--x--x--x--x--x--x--x--x--x--x--x--x--x--x--x--|          
A-8--8--8--8--9--9--9--9--15-15-15-15-16-16-16-16-|        
E-------------------------------------------------|

E-------------------------------------------------|         
B-------------------------------------------------|      
G-10-10-10-10-11-11-11-11-13-13-13-13-13-13-13-13-|          
D-x--x--x--x--x--x--x--x--x--x--x--x--x--x--x--x--|          
A-8--8--8--8--9--9--9--9--11-11-11-11-11-11-11-11-|        
E-------------------------------------------------| 

Guitar 2
E----------------------------------------|         
B----------------------------------------|    x2  
G----------------------------------------|          
D-3333-4444-6666-8888-3333-4444-66666666-|          
A-3333-4444-6666-8888-3333-4444-66666666-|        
E-1111-2222-4444-6666-1111-2222-44444444-|

Verse 2

Guitar 1
E--------------|         
B-----------44-|   x8   
G-x-x-6-x-x-66-|          
D--------------|          
A--------------|        
E--------------|
 
E------6-4-----|                  
B----------6-4-|   x4     
G-xxxx---------|        
D--------------|       
A--------------|        
E--------------|        
                          
Guitar 2
  . . . .  . . . .
E------------------|         
B------------------|   x8
G------------------|          
D------------------|          
A-1-1-2-4--6-6-2-4-|        
E------------------|         
  . . . .  . . . .

Pre Chorus 2

Guitar 1 (Can Be Heard Very Softly)
E----------------|          |----------|       
B----------------|    x3    |----------|
G----------------|          |-6-xx-6-x-| 
D-11-12-12-15-15-|          |-6-xx-6-x-|   
A----------------|          |-4-xx-4-x-| 
E----------------|          |----------| 

E----------------|                
B----------------|    x3
G----------------|         
D-11-12-12-15-15-|         
A----------------|         
E----------------|  
       
Guitar 2
E---------------------------------|-------------|
B---------------------------------|-------------|   
G---------------------------------|-6-x-xx-x-xx-|  
D-8----8----6----4----8----6----4-|-6-x-xx-x-xx-|
A-8----8----6----4----8----6----4-|-4-x-xx-x-xx-|
E-6----6----4----2----6----4----2-|-------------|





Bridge 1     (*) = Delay effect

E--------------------------------------------------------|                  
B--------------------------------------------------------|        
G--------10-(10\6)---15-15-15-15-13-13-13-13-------------|        
D-8--xx-x--8---------------------------------------------|       
A-8--xx-x-----------------------------------|        
E-6--xx-x------------------------------------------------|  


Continued...


Guitar 1
E------------------------------------------|
B------------------------------------------|     x4 
G-10-10-10-10-10-10-10-11-10-10-10-10-10\\-|     
D-x--x--x--x--x--x--x--x--x--x--x--x--x----|
A-8--8--8--8--8--8--8--9--8--8--8--8--8\\--|
E------------------------------------------|

Guitar 2
E----------------------------|
B----------------------------|     x4 
G----------------------------|     
D-8-8-11-8-11--13-13-11-8-11-|
A-8-8-11-8-11--13-13-11-8-11-|
E-6-6-9--6-9---11-11-9--6-9--|




E-------11---------11-|
B-9p8h9----9-9-8-9----| >>>Also Played Throughout the Last two Chorus' 
G---------------------|    (hard to hear) 
D---------------------|
A---------------------|
E---------------------|


Bridge 2 / Solo

guitar 1 (Solo)
E--------------------------------------------------------8-^9-|
B--------------------------------------^8------------8~-------|      
G-------------8-10-8-10~-8-10-8-10-8-6---10-8-7---------------|     
D--------8-11-----------------------------------10-8----------|
A-\-8-10------------------------------------------------------|
E-------------------------------------------------------------|

Guitar 2 (Solo Backing)
E----------------------------------------|         
B----------------------------------------|      
G----------------------------------------|          
D-3333-4444-6666-8888-3333-4444-66666666-|          
A-3333-4444-6666-8888-3333-4444-66666666-|        
E-1111-2222-4444-6666-1111-2222-44444444-|

Outro (Verse 1 Riff)

Guitar 1
E--------------|         
B-----------44-|   x4   
G-x-x-6-x-x-66-|          
D--------------|          
A--------------|        
E--------------| 
  
Guitar 2
  . . . .  . . . .
E------------------|         
B------------------|   x2  
G------------------|          
D------------------|          
A-1-1-2-4--6-6-2-4-|        
E------------------|         
  . . . .  . . . .    

Added On December 4th, 2013

SHARE

Comments

blog comments powered by Disqus

VERSIONS

ADVERTISEMENT