Fall Out Boy Tabs

Sophomore Slump Or Comeback Of The Year

1 versions

TAB

            wiiii... any suggestions? email.
annahortelano@hotmail.com

++++++++++++++++++++++++++++
 tune the 6th string to D   or(Drop D) :)
tip: 6th and 4th strings should sound the same note D.

Intro:
                       (7x)    (4x)
D----99999998888888---2222222---6666-442------|
A----99999999999999---2222222---6666-442------|
D----99999999999999---2222222---6666-442------|
G---------------------------------------------|
B---------------------------------------------|
E---------------------------------------------|

continued:
                       you choose. :) i prefer the 799.
D----99999998888888-------------2~--|
A----99999999999999-----7~------2~--|
D----99999999999999-----9~--or--2~--|
G-----------------------9~----------|
B-----------------------------------|
E-----------------------------------|

Verse:

"we're the therapists, pump..."
D----66-4\22/44----------------------|   (8x)
A----66-4\22/44--222-----------------|
D----66-4\22/44--444-----------------|
G----------------444-----------------|
B------------------------------------|
E------------------------------------|

Pre-Verse I:
"i'll keep singing this..."

D---9(7x)--4(7x)-6(7x)/9(7x)-b-9(7x)-4(7x)6(7x)4(7x)-|
A---9------4-----6-----9-----r-9-----4----6----4-----|
D---9------4-----6-----9-----e-9-----4----6----4-----|
G----------------------------a-----------------------|
B----------------------------k-----------------------|
E----------------------------------------------------|

Chorus:
Are we growing...

D---(7x)------------------------------|
A---6----9-(7x)-6(7x)--6(4x)-4(4x)----|
D---x----x------x------x-----x--------|
G---8----11-----8------8-----6--------|
B-------------------------------------|
E-------------------------------------|

D----66-4\22/44---------------------|
A----66-4\22/44--22-----------------|
D----66-4\22/44--44-----------------|
G----------------44-----------------|
B-----------------------------------|
E-----------------------------------|

VerseII: Same as Verse I
or

G--44-6/8-8/11-11\8888--|
B-----------------------|
E-----------------------|


Pre-Chorus II:
D---9(7x)-4(7x)6(7x)4(7x)-|
A---9-----4----6----4-----|
D---9-----4----6----4-----|
G-------------------------|
B-------------------------|
E-------------------------|


and.. I'll update this. Still working on it. :D be patient. haha    

Added On December 16th, 2013

SHARE

Comments

blog comments powered by Disqus

ADVERTISEMENT