Fall Out Boy Tabs

Thnks Fr Th Mmrs

9 versions

TAB

            Thnks Fr Th Mmrs Tab by Fall Out Boy


Artist: Fall Out Boy
Song: Thnks Fr Th Mmrs
Album: Infinity On High

Questions, comments, or improvements: Mail konnichiwa_biotches@hotmail.com

This is my favorite song off of Fall Out Boy’s newest album.  It’s really easy to learn 
it’s fun to play.
~ = Vibrato
/ = Slide Up
\ = Slide Down
. = Palm Mute
x = Muted Note
h = Hammer On
p = Pull Off
()= Harmonic

Standard Tuning (EADGBe)


Intro
I'm gonna make you bend and break (It sends you to me without wait)
Say a prayer but let the good times roll in case God doesn't show
(Let the good times roll, let the good times roll)

And I want these words to make things right but it's the wrongs that make the words come 
life. "Who does he think he is?"
If that's the worst you got, then put your fingers back to the keys.

E-------------------------|
B-------------------------|  X7
G-------------------------|
D-15-15-16-16-15-15-13-13-|
A-------------------------|
E-------------------------|
  •  •  •  •  •  •  •  •
Chorus

One night and one more time thanks for the memories
even though they weren't so great. "He tastes like you only sweeter"
E-----------------------------------------------------------------|
B-----------------------------------------------------------------|
G-----------------------------------------------------------------|  X2
D-8-8-8-8-8-8-8-8-4-4-4-4-4-4-4-4-3-3-3-3-3-3-3-3-4-4-4-4-6-6-6-6-|
A-8-8-8-8-8-8-8-8-4-4-4-4-4-4-4-4-3-3-3-3-3-3-3-3-4-4-4-4-6-6-6-6-|
E-6-6-6-6-6-6-6-6-2-2-2-2-2-2-2-2-1-1-1-1-1-1-1-1-2-2-2-2-4-4-4-4-|

One night, yeah, and one more time. Thanks for the memories.
Thanks for the memories. "He, he tastes like you only sweeter"
E-----------------------------------------------------------------|
B-----------------------------------------------------------------|
G-----------------------------------------------------------------|  X2
D-8-8-8-8-8-8-8-8-4-4-4-4-4-4-4-4-3-3-3-3-3-3-3-3-4-4-4-4-6-6-6-6-|
A-8-8-8-8-8-8-8-8-4-4-4-4-4-4-4-4-3-3-3-3-3-3-3-3-4-4-4-4-6-6-6-6-|
E-6-6-6-6-6-6-6-6-2-2-2-2-2-2-2-2-1-1-1-1-1-1-1-1-2-2-2-2-4-4-4-4-|


Verse 1

Guitar 1

E-------------------------------------------------------------------|
B-------------------------------------------------------------------|
G-33------------------3------------3---------------2----------------|
D-33------------------3------------3---------------2----------------|
A-11111111111111111111111111111111111111111111111110000000000000000-|
E-------------------------------------------------------------------|
    •••••••••••••••••• •••••••••••• ••••••••••••••• •••••••••••••••

Been looking forward to the future, but my eyesight is going bad
And this crystal ball is always cloudy except for (except for)
When you look into the past (look into the past)
One night stand (one night stand off)

E-------------------------------------------------------------------|
B-------------------------------------------------------------------|
G-----------------2---------------3---------------2-----------------|
D-3---------------2---------------3---------------2-----------------|
A-3---------------0000000000000000111111111111111100000000000000000-|
E-1111111111111111--------------------------------------------------|
   ••••••••••••••• ••••••••••••••• ••••••••••••••• ••••••••••••••••

E---------------------------|
B---------------------------|
G---------------------------|
D-3-------------------------|
A-3-------------------------|
E-1111111111111111111111111-|
   ••••••••••••••••••••••••

Guitar 2
E-----------------------|
B-----------------------|
G-------------16-14-13~-|
D-15-17-18-18-----------|
A-----------------------|
E-----------------------|

(Stars in the middle of Verse 1)

E-------------------------|          |-------------|
B-------------------------|    X7    |-------------|
G-------------------------|          |-------------|
D-15-15-16-16-15-15-13-13-|          |-15-15-16-16-|
A-------------------------|          |-------------|
E-------------------------|          |-------------|
  •  •  •  •  •  •  •  •               •  •  •  •


Chorus

One night and one more time thanks for the memories
even though they weren't so great. "He tastes like you only sweeter"
E-----------------------------------------------------------------|
B-----------------------------------------------------------------|
G-----------------------------------------------------------------|  X2
D-8-8-8-8-8-8-8-8-4-4-4-4-4-4-4-4-3-3-3-3-3-3-3-3-4-4-4-4-6-6-6-6-|
A-8-8-8-8-8-8-8-8-4-4-4-4-4-4-4-4-3-3-3-3-3-3-3-3-4-4-4-4-6-6-6-6-|
E-6-6-6-6-6-6-6-6-2-2-2-2-2-2-2-2-1-1-1-1-1-1-1-1-2-2-2-2-4-4-4-4-|

One night, yeah, and one more time. Thanks for the memories
Thanks for the memories. "He, he tastes like you only sweeter"
E-----------------------------------------------------------------|
B-----------------------------------------------------------------|
G-----------------------------------------------------------------|  X2
D-8-8-8-8-8-8-8-8-4-4-4-4-4-4-4-4-3-3-3-3-3-3-3-3-4-4-4-4-6-6-6-6-|
A-8-8-8-8-8-8-8-8-4-4-4-4-4-4-4-4-3-3-3-3-3-3-3-3-4-4-4-4-6-6-6-6-|
E-6-6-6-6-6-6-6-6-2-2-2-2-2-2-2-2-1-1-1-1-1-1-1-1-2-2-2-2-4-4-4-4-|


Verse 2 (Acoustic)

Guitar 1

They say I only think in the form of crunching numbers
In hotel rooms collecting page six lovers
Get me out of my mind and get you out of those clothes
I'm a liner away from getting you into the mood, whoa
E-xx-11-x-1-xx-22--x2-x-22-x-2-x-22-x-00-|         |-1111111111111111-|
B-xx-33-x-3-xx-33--x3-x-33-x-3-x-33-x-11-|   X4    |-3333333333333333-|
G-xx-22-x-2-xx-22--x2-x-22-x-2-x-22-x-00-|         |-2222222222222222-|
D-xx-00-x-0-xx-00--x0-x-00-x-0-x-00-x-22-|         |-0000000000000000-|
A-xx-00-x-0-xx-00--x0-x-00-x-0-x-00-x-33-|         |-xxxxxxxxxxxxxxxx-|
E-xx-00-x-0-xx-00--x0-x-00-x-0-x-00-x-00-|         |-xxxxxxxxxxxxxxxx-|
                                                     (Build up here)

Guitar 2 (comes in half way through Verse)

*=Tremolo Pick each note 8 times
E---------------------|
B--18*--16*--14*--13*-|
G---------------------|
D---------------------|
A---------------------|
E---------------------|

E---------------------------------------------------|
B-11-11-13-13-14-14-16-16---16-16-16-16-18-18-18-18-|
G---------------------------------------------------|
D---------------------------------------------------|
A---------------------------------------------------|
E---------------------------------------------------|


E-------------------------------------------------|
B-16-18-16-18-16-18-16-18-16-18-16-18-16-18-16-18-|
G-------------------------------------------------|
D-------------------------------------------------|
A-------------------------------------------------|
E-------------------------------------------------|


Bridge/Pre Chorus

One night and one more time. Thanks for the memories
even though they weren't so great. "He tastes like you only sweeter"
One night, yeah, and one more time. Thanks for the memories, thanks for the memories. 
he tastes like you only sweeter"
Guitar 1
E-------------------------------------------------------------|
B-------------------------------------------------------------|
G-------------------------------------------------------------|
D-8\------------8\---------------------------8888888888888888-|
A-8\------------8\---------------------------8888888888888888-|
E-6\------------6\---------------------------6666666666666666-|
                                             ••••••••

(Guitar 2: Pickslide)

Chorus

One night and one more time (One more night, one more time)
Thanks for the memories even though they weren't so great.
"He tastes like you only sweeter"
E-----------------------------------------------------------------|
B-----------------------------------------------------------------|
G-----------------------------------------------------------------|  X2
D-8-8-8-8-8-8-8-8-4-4-4-4-4-4-4-4-3-3-3-3-3-3-3-3-4-4-4-4-6-6-6-6-|
A-8-8-8-8-8-8-8-8-4-4-4-4-4-4-4-4-3-3-3-3-3-3-3-3-4-4-4-4-6-6-6-6-|
E-6-6-6-6-6-6-6-6-2-2-2-2-2-2-2-2-1-1-1-1-1-1-1-1-2-2-2-2-4-4-4-4-|


One night, yeah, and one more time (One more night, one more time)
Thanks for the memories, thanks for the memories
"He, he tastes like you only sweeter"
E-----------------------------------------------------------------|
B-----------------------------------------------------------------|
G-----------------------------------------------------------------|  X2
D-8-8-8-8-8-8-8-8-4-4-4-4-4-4-4-4-3-3-3-3-3-3-3-3-4-4-4-4-6-6-6-6-|
A-8-8-8-8-8-8-8-8-4-4-4-4-4-4-4-4-3-3-3-3-3-3-3-3-4-4-4-4-6-6-6-6-|
E-6-6-6-6-6-6-6-6-2-2-2-2-2-2-2-2-1-1-1-1-1-1-1-1-2-2-2-2-4-4-4-4-|

End on:
E----------|
B----------|
G----------|
D-----8----| Let this note ring out.
A-----8----|
E-----6----|    

Added On December 16th, 2013

SHARE

Comments

blog comments powered by Disqus