Familiar 48 Tabs

I Need No More

1 versions

TAB

            Jayy Mannon / Bonehead / Familiar 48 - I need no more

Main Riff (Intro/Verses)
     
e|----------------------------3--|
B|----3---3---3---3-------3---3--|
G|-----------------------0----0--|
D|-0h2-0h2-0h2-0h2------------2--|
A|-------------------0h2------3--|
E|-------------------------------|
   Em       Em	     G/B      C	  

Pre-Chorus Chords
    
e|--2--2--3--3----2--2--3—3--------|
B|--3--3--3--3----3--3--3—3--------|
G|--2--2--0--0----2--2--0—0--------|
D|--0--0--0--2----0--0--2--2-------|
A|--0--0--2--3----0--0--3--3-------|
E|--------x-------------------3-2--|
     D D G/B C9  – D D  C9 C9     

Chorus

e|--0-0--------2-2--2-3------------|
B|--0-0--------3-3--3-3------------|
G|--0-0--------2-2--2-2------------|
D|--2-2----------------------------|
A|--2-2—--3--2---------------------|
E|--0-0----------------------------|
	Em 	C-B   D   D  	

Lyrics

Intro: Em Em  G/B  C9  (main riff)

Em                        G/B         C9  
  For so long my feelings seem to never change
Em                             G/B         C9                            
  All the hurt keeps reeling reminding me again
Em                               G/B         C9  
  Fought so long to keep myself from it and then
Em                              G/B      C9  
  You took over every thought inside my head

Prechorus:
D                       
  And I want so much to love you
G/B                C9
  but I just hold back
D                        C9           (hit "3-2" on E-string)
  Every one before you tore me down

Chorus:
Em            C-B     D 
 Never have I in my life
              Em                 C-B    D  
  Everything about you makes me feel alright
              Em                 C-B        D  
  Heaven must have sent you to brighten my life
                Em         C-B  D               (Back to intro riff)  
  When I’m with you I need no more.... no more  

Verse 2:

Em                        G/B         C9  
  For a moment hesitation starts to build
Em                    G/B         C9  
  The familiar feeling I remember well
Em                            G/B         C9 
  It hurt so long but I can’t let you get away
Em                               G/B         C9 
  You’re not like them you mean everything to me

Prechorus:
D                       
  And I want so much to love you
G/B                C9
  but I just hold back
D                        C9           (hit "3-2" on E-string)
  Every one before you tore me down

Chorus x1
Bridge x1 (I don't know the chords to this)
Chorus x1    

Added On December 16th, 2013

SHARE

Comments

blog comments powered by Disqus

ADVERTISEMENT