Familiar 48 Tabs

The Question

4 versions

TAB

            The Question Tab by Familiar 48


Standard Tuning

Intro/Verse/chorus

Listen for the strum pattern and hammerons and slides. The pattern changes for the chorus;

-----------------------------------------------------------
---------------------2-h3h2h0------------------------------
-9---4---6-----------2-2-2-2----1---4/9\4-------------------
-9---4---6---6-------2-2-2-2----2---4/9\4------------------
-7---2---4---6------------------2---2/7\2-------------------
-------------4---------------------------------------------

Prechorus

-------------------------   X3
-------------------------
-----------------------9-
-----7-----------------9-
-----7-----------------7-
-----5-------------------
"And she falls down.. Cryin........."

Then this after that 3 times

---------------------------
---------------------------
---4/9\4-------------------
---4/9\4-------------------
---2/7\2-------------------
---------------------------
"And she tells me that she does it all for me"


Like I said listen for the strum pattern all he chords sound right. Let me know if 
anything is wrong    

Added On December 4th, 2013

SHARE

Comments

blog comments powered by Disqus

VERSIONS

ADVERTISEMENT