Fast Crew Tabs

Its The Incredible

1 versions

TAB

            -------------------------------------------------------------------------------
			     It's the Incredible - Fast Crew
-------------------------------------------------------------------------------
Tabbed by: Chris
Email: marbigmarbig@gmail.com

Tuning: Standard

e|--------------------------------------------------------------|
B|--------------------------------------------------------------|
G|--------------5---------------5----------5---5----------------|
D|--5-------5---5---5-------5---5---5------5---5---8------7-----|
A|--5-------5---3---5-------5---3---5------3---3---8------7-----|
E|--3-------3-------3-------3-------3--------------6------5-----|

Repeat. All there is to it.    

Added On December 16th, 2013

SHARE

Comments

blog comments powered by Disqus

ADVERTISEMENT