Fear Factory Tabs

A Therapy For Pain

4 versions

TAB

            A Therapy For Pain Tab by Fear Factory


song: A Therapy for Pain (keyboards)
artist: Fear Factory
transcribed by Brian Van Maurik (vanmaurik@hotmail.com)


Allright I transcribed this myself. This is the part that the keyboards play over the part where burton sings "tried so hard"
I figured this out several months ago, and I figured I'd put it on here since it was left out of the original. This does not 
includethe keyboards at the very beginning of the song. I think they may be playing riff A along the low B and E strings, but
I'm not 100 percent sure. If you figure it out let me know.

Tune all strings down a perfect fourth (B, E, A, D, F#, B)


Keyboard Riff A

|-----------------------------------------------------|
|-----------------------------------------------------|
|---11--11-10-----------9--9-8------------------------|
|---------------11--------------9---------------------|
|-----------------------------------------------------|
|-----------------------------------------------------|


Keyboard Riff B

|-----------------------------------------------------|
|---12--12-11-----------10--10-9----------------------|
|---------------11----------------9-------------------|
|-----------------------------------------------------|
|-----------------------------------------------------|
|-----------------------------------------------------|

before the first verse,play each riff twice

repeat after first and second verse with "tried so hard"

after third verse, play riff A 8 times, then riff B 8 times    

Added On December 4th, 2013

SHARE

Comments

blog comments powered by Disqus

VERSIONS

ADVERTISEMENT