Fidlar Tabs

Cheap Beer

1 versions

TAB

            FIDLAR - Cheap Beer

Intro, Verse, Solo:
 
Listen for palm muting etc. 
 
e|-------------------------------------------------2----------|
B|-------------------------------------------------3---2-2----|
G|-------------------------------------------------2---2-2----|
D|-------------------------------------------------0---2-2----|
A|--2-2-2-2-2-2-2-2-2-2-2-2-2-2-2-2-2-2-2-2-2-2-2------0-0----|
E|--0-0-3-0-0-0-3-0-0-0-3-0-0-0-3-0-0-0-3-0-0-0-3-------------|

There seems to be another guitar just playing muted xxxxx's in the first verse. 


Chorus:

This is what Zac plays, Elvis plays the same but seems to play D5 and A5 power chords
up on the 5th fret. 

        I     DRINK        CHEAP         BEER       SO   WHAT      FUCK YOU
                            
e|----------------------------------------------------------------2---------|
B|-----3-3b-3b-3b-3b-3b-----3-3-3b-3b-3b-3b-----3-3-3b-3b-3b-3b---3---2-2---|
G|----------------------------------------------------------------2---2-2---|
D|-2--------------------2--------------------2--------------------0---2-2---|
A|-2--------------------2--------------------2------------------------0-0---|
E|-0--------------------0--------------------0------------------------------|


If I can figure out the solo, I'll upload it as well. 

FUCK IT DOG LIFE'S A RISK    

Added On December 16th, 2013

SHARE

Comments

blog comments powered by Disqus

ADVERTISEMENT