Finger Eleven Tabs

Obvious Heart

2 versions

TAB

            Obvious Heart Tab by Finger Eleven


Tuning: Db Ab Db Gb Bb eb


This tab is based on the DVD performance of "Obvious Heart". The only
real big difference between this and the album version is that the 
bridge has been simplified to be played live.


Verse:

-|--0---0--|-
-|--0---0--|-
-|--5---2--|-
-|--5---2--|- 2x
-|--3---0--|-
-|---------|-


Chorus:

    Both guitars        Guitar 2
-|-----------------|----------------|-
-|-----------------|-------12br-----|-
-|--------------2--|--9-12------12--|-
-|--33--33--33--2--|----------------|- 2x
-|--33--33--33--0--|----------------|-
-|--33--33--33-----|----------------|-

-|-----------------------------------|-
-|-------------------------0---------|-
-|--------------2---4----5---4----4--|-
-|--33--33--33--2---4--2----------2--|-
-|--33--33--33--0---2--2----------2--|-
-|--33--33--33---------2----------2--|-


Verse:

Guitar 1
-|---------------7----------------------7-----|-
-|-----7------------8------7--8------------8--|-
-|--5---------9---------5------------9--------|-
-|---------7----------------------7-----------|-
-|--------------------------------------------|-
-|--------------------------------------------|-

Guitar 2                                                                        
-|--0---0--|-
-|--0---0--|-
-|--5---2--|-
-|--5---2--|- 2x
-|--3---0--|-
-|---------|-


Chorus:

    Both guitars        Guitar 1
-|-----------------|----------------|-
-|-----------------|-------12br-----|-
-|--------------2--|--9-12------12--|-
-|--33--33--33--2--|----------------|- 2x
-|--33--33--33--0--|----------------|-
-|--33--33--33-----|----------------|-

-|-----------------------------------|-
-|-------------------------0---------|-
-|--------------2---4----5---4----4--|-
-|--33--33--33--2---4--2----------2--|-
-|--33--33--33--0---2--2----------2--|-
-|--33--33--33---------2----------2--|-



Bridge:

Guitar 1
-|------------|-------------|------------|------------|--55-7h8--|-
-|------------|-------------|------------|------------|--55------|-
-|---------9--|----------9--|------------|------------|----------|-
-|--7-9-10----|-----9-10----|----7-9-10--|----7-9-10--|----------|-
-|------------|--10---------|--8---------|--7---------|----------|-
-|------------|-------------|------------|------------|----------|-
      8x            8x            4x           4x          8x

Guitar 2
-|---------------------|-
-|---------------------|-
-|----------7----------|- Guitar 2 plays very softly, palm muted 
-|--7---5---7---3---7--|- under the Guitar 1 part.
-|--7---5---5---3---7--|- The chords change as Guitar 1 changes riffs
-|--7---5-------3---7--|-
   32x 32x 16x 16x 32x


Then both guitars...
-|-------------------|-
-|-------------------|-
-|---------------14--|-
-|--5---12---3---14--|-
-|--5---12---3---12--|-
-|--5---12---3-------|-
   32x  16x 16x 32x



Chorus:
-|----------------|- -|-----------------|-
-|----------------|- -|-----------------|-
-|-------------2--|- -|--------------2--|-
-|--33--pause--2--|- -|--33--33--33--2--|-
-|--33---------0--|- -|--33--33--33--0--|-
-|--33------------|- -|--33--33--33-----|-
              16x                   16x

-|---------------------------------------|-
-|-----------------------------0---------|-
-|--------------2---4-444----5---4----4--|-
-|--33--33--33--2---4-444--2----------2--|-
-|--33--33--33--0---2-222--2----------2--|-
-|--33--33--33-------------2----------2--|-
                8x


Outro:
-|------------|-    -|---------------|-
-|------------|-    -|----------0----|-
-|--2---------|-    -|--2------------|-
-|--2------4--|- 2x -|--2-----2---4--|- 6x
-|--0------4--|-    -|--0---------4--|-
-|------5--4--|-    -|------5-----4--|-


End with:
-|-----|-
-|-----|-
-|--2--|-
-|--2--|-
-|--0--|-
-|-----|-    

Added On December 4th, 2013

SHARE

Comments

blog comments powered by Disqus

VERSIONS

ADVERTISEMENT