Finger Eleven Tabs

One Thing

10 versions

TAB

            One Thing Chords by Finger Eleven

Finger Eleven - One Thing
Standard tuning.
Cap 1st fret.

Hey people.  This is my first tab so be gentle.  First off, i'd like to say that
this isn't the correct way.  The correct way is tuned differently and played around
the 7th fret. However, I am lazy and enjoy playing in standard tuning.
Austen, a bud, figured this one out.  I mapped it out and pressed out all the
wrinkles.  Saying that, it sounds amazing.  So enjoy.

(Riff) - repeat.  

3-----3-----0---------0-------8--------8-------------3
--3-----3--------3------3-----8---8-------8-----------
----0-----0--------0------0----------0-------0--------
------------------------------------------------------
------------------------------------------------------
3-----------3----------------------------------------3


INTRO:  Riff  **(Drum enters on 3rd;  Vocals on 5th)

Restless tonight
cause i wasted the light
between both these times
i drew a really thin line
it's nothing i planned
and not that i can
but you should be mine
across that line

(strumming enters)

G
G
e |---|---|-x-|---|---|
B |---|---|---|---|---|
G |---|---|---|---|---|
D |---|---|---|---|---|
A |---|-x-|---|---|---|
E |---|---|-x-|---|---|
If i traded it all C
C
e |---|---|-x-|---|---|
B |-x-|---|---|---|---|
G |---|---|---|---|---|
D |---|-x-|---|---|---|
A |---|---|-x-|---|---|
E |---|---|---|---|---|
If i gave it all away for one thing just for one thing G
G
e |---|---|-x-|---|---|
B |---|---|---|---|---|
G |---|---|---|---|---|
D |---|---|---|---|---|
A |---|-x-|---|---|---|
E |---|---|-x-|---|---|
If i sorted it out C
C
e |---|---|-x-|---|---|
B |-x-|---|---|---|---|
G |---|---|---|---|---|
D |---|-x-|---|---|---|
A |---|---|-x-|---|---|
E |---|---|---|---|---|
If i knew all about this one thing wouldn't that be something (Riff) I promise i might not walk on by maybe next time but not this time Even though i know i don't wanna know yeah i guess i know i just hate how it sounds G
G
e |---|---|-x-|---|---|
B |---|---|---|---|---|
G |---|---|---|---|---|
D |---|---|---|---|---|
A |---|-x-|---|---|---|
E |---|---|-x-|---|---|
If i traded it all C
C
e |---|---|-x-|---|---|
B |-x-|---|---|---|---|
G |---|---|---|---|---|
D |---|-x-|---|---|---|
A |---|---|-x-|---|---|
E |---|---|---|---|---|
If i gave it all away for one thing just for one thing G
G
e |---|---|-x-|---|---|
B |---|---|---|---|---|
G |---|---|---|---|---|
D |---|---|---|---|---|
A |---|-x-|---|---|---|
E |---|---|-x-|---|---|
If i sorted it out C
C
e |---|---|-x-|---|---|
B |-x-|---|---|---|---|
G |---|---|---|---|---|
D |---|-x-|---|---|---|
A |---|---|-x-|---|---|
E |---|---|---|---|---|
If i knew all about this one thing wouldn't that be something G
G
e |---|---|-x-|---|---|
B |---|---|---|---|---|
G |---|---|---|---|---|
D |---|---|---|---|---|
A |---|-x-|---|---|---|
E |---|---|-x-|---|---|
If i traded it all C
C
e |---|---|-x-|---|---|
B |-x-|---|---|---|---|
G |---|---|---|---|---|
D |---|-x-|---|---|---|
A |---|---|-x-|---|---|
E |---|---|---|---|---|
If i gave it all away for one thing just for one thing G
G
e |---|---|-x-|---|---|
B |---|---|---|---|---|
G |---|---|---|---|---|
D |---|---|---|---|---|
A |---|-x-|---|---|---|
E |---|---|-x-|---|---|
If i sorted it out C
C
e |---|---|-x-|---|---|
B |-x-|---|---|---|---|
G |---|---|---|---|---|
D |---|-x-|---|---|---|
A |---|---|-x-|---|---|
E |---|---|---|---|---|
If i knew all about this one thing wouldn't that be something (Riff) Even though i know i don't wanna know yeah i guess i know i just hate how it sounds Even though i know i don't want to know yeah i guess i know i just hate how it sounds (silence) G
G
e |---|---|-x-|---|---|
B |---|---|---|---|---|
G |---|---|---|---|---|
D |---|---|---|---|---|
A |---|-x-|---|---|---|
E |---|---|-x-|---|---|
If i traded it all C
C
e |---|---|-x-|---|---|
B |-x-|---|---|---|---|
G |---|---|---|---|---|
D |---|-x-|---|---|---|
A |---|---|-x-|---|---|
E |---|---|---|---|---|
If i gave it all away for one thing just for one thing G
G
e |---|---|-x-|---|---|
B |---|---|---|---|---|
G |---|---|---|---|---|
D |---|---|---|---|---|
A |---|-x-|---|---|---|
E |---|---|-x-|---|---|
If i sorted it out C
C
e |---|---|-x-|---|---|
B |-x-|---|---|---|---|
G |---|---|---|---|---|
D |---|-x-|---|---|---|
A |---|---|-x-|---|---|
E |---|---|---|---|---|
If i knew all about this one thing wouldn't that be something (3 more times) If i traded it all... ----------- Chords (recommended 'c') Relative to the cap. G
G
e |---|---|-x-|---|---|
B |---|---|---|---|---|
G |---|---|---|---|---|
D |---|---|---|---|---|
A |---|-x-|---|---|---|
E |---|---|-x-|---|---|
C
C
e |---|---|-x-|---|---|
B |-x-|---|---|---|---|
G |---|---|---|---|---|
D |---|-x-|---|---|---|
A |---|---|-x-|---|---|
E |---|---|---|---|---|
3 0 3 1 0 0 0 2 2 3 3 3 There ya go. See you in the funny pages. -zlatko

Added On December 4th, 2013

SHARE

Comments

blog comments powered by Disqus